0
SECTION
2
HEADER
9
$INSUNITS
70
4
9
$ACADVER
1
AC1014
9
$HANDSEED
5
FFFF
0
ENDSEC
0
SECTION
2
TABLES
0
TABLE
2
VPORT
5
8
100
AcDbSymbolTable
0
ENDTAB
0
TABLE
2
LTYPE
5
5
100
AcDbSymbolTable
0
LTYPE
5
14
100
AcDbSymbolTableRecord
100
AcDbLinetypeTableRecord
2
BYBLOCK
70
0
0
LTYPE
5
15
100
AcDbSymbolTableRecord
100
AcDbLinetypeTableRecord
2
BYLAYER
70
0
0
ENDTAB
0
TABLE
2
LAYER
5
2
100
AcDbSymbolTable
70
2
0
LAYER
5
50
100
AcDbSymbolTableRecord
100
AcDbLayerTableRecord
2
0
70
0
6
CONTINUOUS
0
ENDTAB
0
TABLE
2
STYLE
5
3
100
AcDbSymbolTable
70
1
0
STYLE
5
11
100
AcDbSymbolTableRecord
100
AcDbTextStyleTableRecord
2
STANDARD
70
0
0
ENDTAB
0
TABLE
2
VIEW
5
6
100
AcDbSymbolTable
70
0
0
ENDTAB
0
TABLE
2
UCS
5
7
100
AcDbSymbolTable
70
0
0
ENDTAB
0
TABLE
2
APPID
5
9
100
AcDbSymbolTable
70
2
0
APPID
5
12
100
AcDbSymbolTableRecord
100
AcDbRegAppTableRecord
2
ACAD
70
0
0
ENDTAB
0
TABLE
2
DIMSTYLE
5
A
100
AcDbSymbolTable
70
1
0
ENDTAB
0
TABLE
2
BLOCK_RECORD
5
1
100
AcDbSymbolTable
70
1
0
BLOCK_RECORD
5
1F
100
AcDbSymbolTableRecord
100
AcDbBlockTableRecord
2
*MODEL_SPACE
0
BLOCK_RECORD
5
1B
100
AcDbSymbolTableRecord
100
AcDbBlockTableRecord
2
*PAPER_SPACE
0
ENDTAB
0
ENDSEC
0
SECTION
2
BLOCKS
0
BLOCK
5
20
100
AcDbEntity
100
AcDbBlockBegin
2
*MODEL_SPACE
0
ENDBLK
5
21
100
AcDbEntity
100
AcDbBlockEnd
0
BLOCK
5
1C
100
AcDbEntity
100
AcDbBlockBegin
2
*PAPER_SPACE
0
ENDBLK
5
1D
100
AcDbEntity
100
AcDbBlockEnd
0
ENDSEC
0
SECTION
2
ENTITIES
0
LWPOLYLINE
5
100
100
AcDbEntity
8
0
100
AcDbPolyline
90
4
70
1
43
0.0
10
65.021438144531203
20
108.20086043090797
42
0.99999999999999989
10
65.021438144531203
20
109.70086043090797
10
52.521438144531203
20
109.70086043090795
42
0.99999999999999989
10
52.521438144531203
20
108.20086043090797
0
LWPOLYLINE
5
101
100
AcDbEntity
8
0
100
AcDbPolyline
90
4
70
1
43
0.0
10
3.551594145963719
20
108.20086043090791
10
-5.890567958968802
20
108.20086043090791
42
-0.99999999999999989
10
-5.890567958968802
20
109.70086043090789
10
3.551594145963719
20
109.7008604309078
42
-0.99999999999999989
0
LWPOLYLINE
5
102
100
AcDbEntity
8
0
100
AcDbPolyline
90
168
70
1
43
0.0
10
293.88400812199404
20
126.42144832725523
42
0.48932431704720286
10
293.50534919503298
20
126.30973133465446
42
-0.11726106861404045
10
293.1093503510599
20
125.73977212116932
10
293.10935035156143
20
115.60682045912534
42
-0.86703705453666025
10
291.3589081445312
20
113.85741043090817
10
280.85803814453118
20
113.85741043090815
42
-0.86729540169506658
10
279.10803814453118
20
115.60741043090816
10
279.10803814453118
20
126.10741043090815
42
-0.86729540169507402
10
280.85803814453118
20
127.85741043090816
10
290.99087415578123
20
127.85741043090812
42
-0.25699536289085917
10
292.35549054762117
20
128.33700399621128
42
0.48932431704992685
10
292.64569880939541
20
128.60466503969653
42
-0.020955202835530307
10
292.63503358177104
20
128.85579072750087
42
0.41408664779171928
10
291.63503367140117
20
129.85535739458516
10
248.47285354454115
20
129.85535739458714
42
-0.99999999999999989
10
248.47285354452112
20
132.35741043090914
10
280.47285354453118
20
132.35741043090815
42
0.99999999999999989
10
280.47285354453112
20
135.35741043090815
10
245.47285354453118
20
135.35741043090812
42
0.41421356237309503
10
244.47285354453115
20
134.35741043090812
10
244.47285354453115
20
131.85741043090812
42
-0.41421356237309503
10
242.97285354453118
20
130.35741043090812
10
205.16485354453118
20
130.35741043090806
42
-0.41421356237310197
10
203.66485354453113
20
131.85741043090809
10
203.66485354453116
20
134.35741043090809
42
0.41421356237309503
10
202.66485354453113
20
135.35741043090809
10
167.66485354453113
20
135.35741043090806
42
0.99999999999999989
10
167.66485354453113
20
132.35741043090806
10
199.66485354453113
20
132.35741043090908
42
-0.99999999999999989
10
199.66485354453113
20
129.85535739458709
10
129.66485354453113
20
129.85535739458703
42
-0.99999999999999989
10
129.66485354453113
20
132.35741043090903
10
161.66485354453113
20
132.35741043090803
42
0.99999999999999989
10
161.66485354453113
20
135.35741043090806
10
126.66485354453113
20
135.35741043090803
42
0.41421356237309503
10
125.6648535445311
20
134.35741043090803
10
125.66485354453113
20
131.85741043090803
42
-0.41421356237309503
10
124.16485354453113
20
130.35741043090803
10
86.356938144531128
20
130.357410430908
42
-0.41421356237309503
10
84.856938144531142
20
131.85741043090798
10
84.856938144531142
20
134.35741043090798
42
0.41421356237309503
10
83.856938144531128
20
135.35741043090798
10
48.856938144531092
20
135.35741043090795
42
0.99999999999999989
10
48.856938144531092
20
132.35741043090795
10
80.856938144531114
20
132.357410430909
42
-0.99999999999999989
10
80.856938144531114
20
129.85535739458697
10
32.927759608531098
20
129.85535739458496
42
0.41408170161387625
10
31.927759707329603
20
128.85580761635092
42
-0.041276111250417698
10
31.886747253751295
20
128.36304048474258
42
0.53163574348896281
10
32.187447619029868
20
128.07777134781281
42
-0.21882074926197595
10
33.20803814453118
20
127.85741043090795
10
43.708908144531158
20
127.85741043090795
42
-0.86698579086866379
10
45.459438070490137
20
126.10811751938371
10
45.459441239299679
20
115.60669911110597
42
-0.86698393888888958
10
43.708908144531122
20
113.85741043090796
10
33.208038144531187
20
113.85741043090792
42
-0.8672954016950617
10
31.458038144531173
20
115.60741043090793
10
31.458038144531169
20
126.10741043090795
42
-0.080621309721814513
10
31.272168725065583
20
126.46217161705442
42
0.5316357434838932
10
30.872899863539796
20
126.57345309066179
42
-0.34435690208807296
10
27.181968750436027
20
126.41768827764479
42
0.48788490799279516
10
26.803974993767511
20
126.30624032453257
42
-0.11661147230908939
10
26.409419833543559
20
125.73983432157596
10
26.409419833499122
20
115.60672769364685
42
-0.86699644916271201
10
24.658908144531182
20
113.85741043090792
10
14.158038144531178
20
113.8574104309079
42
-0.8672954016950617
10
12.408038144531162
20
115.60741043090792
10
12.408038144531181
20
126.10741043090795
42
-0.86729540169506658
10
14.158038144531169
20
127.85741043090793
10
24.290874155803969
20
127.8574104309333
42
-0.25585729185324685
10
25.649168353431477
20
128.33804375216582
42
0.48788490805878781
10
25.93833083008974
20
128.60578427660846
42
-0.020861476572265419
10
25.92776056629841
20
128.85578973929546
42
0.41408693720439088
10
24.927760655531124
20
129.85535739458493
10
10.856938144531121
20
129.85535739458692
42
-0.99999999999999989
10
10.856938144531121
20
132.35741043090891
10
42.856938144531114
20
132.35741043090795
42
0.99999999999999989
10
42.856938144531114
20
135.35741043090795
10
7.8569381445311137
20
135.35741043090792
42
0.41421356237309503
10
6.8569381445312416
20
134.35741043090792
10
6.8569381445311173
20
131.85741043090792
42
-0.41421356237309503
10
5.3569381445311137
20
130.35741043090792
10
-6.1430618554688721
20
130.35741043090792
10
-7.2867332584394955
20
129.21373902796307
42
-0.44635896209116044
10
-8.8658554524689492
20
127.63461683388192
10
-9.1430618554688436
20
127.3574104309079
10
-9.1430618554685594
20
14.341857430907901
10
-8.8687485572719336
20
14.067544132767381
42
-0.44751773259057614
10
-7.2868931536143577
20
12.485688729010462
10
-6.1430618554685879
20
11.341857430907893
10
5.3569381445313979
20
11.341857430907893
42
-0.41421356237309503
10
6.8569381445313837
20
9.8418574309079077
10
6.8569381445314548
20
8.343910467207909
42
0.41421356237309503
10
7.8569381445313979
20
7.3439104672079125
10
42.856938144531433
20
7.343910467207948
42
0.99999999999999989
10
42.856938144531433
20
10.343910467207955
10
10.856938144531476
20
10.34391046720792
42
-0.99999999999999989
10
10.856938144531405
20
11.843910467207905
10
80.856938144531441
20
11.843910467207976
42
-0.99999999999999989
10
80.856938144531441
20
10.343910467207991
10
48.856938144531412
20
10.343910467207955
42
0.99999999999999989
10
48.856938144531412
20
7.343910467207948
10
83.856938144531455
20
7.3439104672079836
42
0.41421356237309503
10
84.856938144531455
20
8.34391046720798
10
84.856938144531441
20
9.8418574309079787
42
-0.41421356237309503
10
86.356938144531455
20
11.341857430907982
10
124.66485775950723
20
11.341857430923941
42
-0.41497776630382288
10
125.16410472790116
20
11.843909906481347
10
161.41485354453147
20
11.843910467208048
42
-0.99999999999999989
10
161.41485354453147
20
10.343910467208062
10
126.66485354453144
20
10.343910467208026
42
0.41421356237309503
10
125.66485354453143
20
9.343910467208012
10
125.66485354453143
20
8.3439104672080155
42
0.41421356237309503
10
126.66485354453144
20
7.3439104672080191
10
202.66485354453147
20
7.3439104672080902
42
0.41421356237309503
10
203.66485354453144
20
8.3439104672080866
10
203.66485354453147
20
9.343910467208083
42
0.41421356237309503
10
202.66485354453147
20
10.343910467208079
10
167.91485354453147
20
10.343910467208062
42
-0.99999999999999989
10
167.91485354453141
20
11.843910467208048
10
204.16552608281233
20
11.843910014900141
42
-0.41502247367363937
10
204.66484932955831
20
11.341857431560847
10
242.97285354453146
20
11.341857430908107
42
-0.41421356237309503
10
244.47285354453143
20
9.8418574309081208
10
244.47285354453143
20
8.3439104672081221
42
0.41421356237309503
10
245.47285354453146
20
7.3439104672081257
10
280.47285354453146
20
7.3439104672081612
42
0.99999999999999989
10
280.47285354453146
20
10.343910467208168
10
248.4728535445314
20
10.343910467208133
42
-0.99999999999999989
10
248.4728535445314
20
11.843910467208119
10
318.47285354453146
20
11.843910467208172
42
-0.99999999999999989
10
318.47285354453146
20
10.343910467208186
10
286.47285354453146
20
10.343910467208168
42
0.99999999999999989
10
286.47285354453146
20
7.3439104672081612
10
321.47285354453146
20
7.3439104672081967
42
0.41421356237309503
10
322.47285354453146
20
8.3439104672081932
10
322.47285354453146
20
9.8418574309081919
42
-0.41421356237309503
10
323.97285354453146
20
11.341857430908195
10
335.47285354453146
20
11.341857430908195
10
336.61967431780425
20
12.488678204208131
42
-0.44632038236869143
10
338.19870537124785
20
14.067709257634515
10
338.4728535445314
20
14.341857430908203
10
338.47285354453112
20
127.35741043090823
10
338.19580676284022
20
127.63445721259913
42
-0.4451605680251931
10
336.6195199262221
20
129.21074404921723
10
335.47285354453118
20
130.3574104309082
10
323.97285354453118
20
130.35741043090815
42
-0.41421356237309503
10
322.47285354453112
20
131.8574104309082
10
322.47285354453112
20
134.3574104309082
42
0.41421356237280366
10
321.4728535445322
20
135.3574104309082
10
286.47285354453112
20
135.35741043090815
42
0.99999999999999989
10
286.47285354453112
20
132.35741043090817
10
318.47285354455119
20
132.35741043090917
42
-0.99999999999999989
10
318.47285354451117
20
129.8553573945872
10
299.63503261766112
20
129.85535739458518
42
0.41408129496339685
10
298.63503271710363
20
128.85580900487224
42
-0.041147049771932058
10
298.59427381338372
20
128.36456698334175
42
0.52982065596416306
10
298.89373735947095
20
128.07914898518914
42
-0.21747169663729093
10
299.90803814453113
20
127.85741043090817
10
310.40890814453115
20
127.85741043090817
42
-0.86704418799744243
10
312.15933814453103
20
126.10798410691078
10
312.15933814453132
20
115.60683675490529
42
-0.86704418799730643
10
310.40890814453121
20
113.85741043090819
10
299.90803814453119
20
113.85741043090816
42
-0.86729540169506658
10
298.15803814453119
20
115.60741043090817
10
298.15803814453113
20
126.10741043090815
42
-0.079771277567931995
10
297.97351076500672
20
126.45816753847669
42
0.5298206559592733
10
297.57494589336113
20
126.56901830390919
42
-0.34431788890328147
0
ARC
5
103
100
AcDbEntity
8
0
100
AcDbCircle
10
72.941223144531364
20
33.894310430907964
30
-4.7597586637681803e-06
40
1.2499999999999893
210
2.6498172146088737e-16
220
-1.9873629109567258e-16
230
1
100
AcDbArc
50
143.13010235415467
51
306.86989764584422
0
LINE
5
104
100
AcDbEntity
8
0
100
AcDbLine
10
71.941223144531392
20
34.644310430907979
30
-4.7597586633541464e-06
11
71.941223144531364
21
45.144310430907964
31
-4.7597586614729379e-06
0
ARC
5
105
100
AcDbEntity
8
0
100
AcDbCircle
10
72.941223144531335
20
45.894310430907971
30
-4.7597586616182278e-06
40
1.2500000000000164
210
1.4679905793476392e-17
220
1.9573254006673188e-17
230
1
100
AcDbArc
50
53.130167384145238
51
216.86989764584504
0
LINE
5
106
100
AcDbEntity
8
0
100
AcDbLine
10
73.691222009543438
20
46.89431128214791
30
-4.7597586616488107e-06
11
93.716164025909379
21
46.894333993976865
31
-4.7597586672490207e-06
0
ARC
5
107
100
AcDbEntity
8
0
100
AcDbCircle
10
94.466165161131357
20
45.894334844977998
30
-4.75975866763793e-06
40
1.2499999999999893
210
2.6498172146088737e-16
220
-1.9873629109567258e-16
230
1
100
AcDbArc
50
-36.869897645845036
51
126.86996267784923
0
LINE
5
108
100
AcDbEntity
8
0
100
AcDbLine
10
95.466165161131329
20
45.14433484497799
30
-4.7597586680519639e-06
11
95.466165161131357
21
34.644334844977976
31
-4.7597586699331724e-06
0
ARC
5
109
100
AcDbEntity
8
0
100
AcDbCircle
10
94.466165161131386
20
33.89433484497799
30
-4.7597586697878826e-06
40
1.2499999999999942
210
-1.1079631389600531e-17
220
-1.5888897138883483e-16
230
1
100
AcDbArc
50
-93.98888710645474
51
36.869897645844283
0
LINE
5
110
100
AcDbEntity
8
0
100
AcDbLine
10
94.379211425731455
20
32.647362893449014
30
-4.759758669986976e-06
11
94.379211425731384
21
31.894310430917976
31
-4.7597586701218948e-06
0
ARC
5
111
100
AcDbEntity
8
0
100
AcDbCircle
10
93.37921142573137
20
31.894310430907993
30
-4.7597586698422324e-06
40
0.99999999999900169
210
0
220
-1.7916282081663236e-16
230
1
100
AcDbArc
50
-90
51
0
0
LINE
5
112
100
AcDbEntity
8
0
100
AcDbLine
10
93.37921142573137
20
30.894310430908991
30
-4.7597586700213951e-06
11
88.37921142573137
21
30.894310430907996
31
-4.7597586686230852e-06
0
ARC
5
113
100
AcDbEntity
8
0
100
AcDbCircle
10
88.37921142573137
20
31.894310430907993
30
-4.7597586684439233e-06
40
1.0000000000000142
210
2.7966222121698818e-16
220
0
230
1
100
AcDbArc
50
180
51
270
0
LINE
5
114
100
AcDbEntity
8
0
100
AcDbLine
10
87.379211425731356
20
31.894310430907993
30
-4.759758668164261e-06
11
87.379211425731
21
32.894334339308585
31
-4.7597586679850941e-06
0
LINE
5
115
100
AcDbEntity
8
0
100
AcDbLine
10
87.379211425731
20
32.894334339308585
30
-4.7597586679850941e-06
11
84.943590293580485
21
32.894330685553292
31
-4.759758667303944e-06
0
LINE
5
116
100
AcDbEntity
8
0
100
AcDbLine
10
84.943590293597566
20
32.894310430908469
30
-4.7597586673039474e-06
11
73.691223144531364
21
32.894310430907971
31
-4.7597586641570887e-06
0
ARC
5
117
100
AcDbEntity
8
0
100
AcDbCircle
10
69.503264992231351
20
45.894322640857972
30
-4.7597586606567598e-06
40
1.2499999999999964
210
2.6498172222848646e-16
220
-1.987362900722039e-16
230
1
100
AcDbArc
50
-36.869897424545648
51
126.87083040875724
0
LINE
5
118
100
AcDbEntity
8
0
100
AcDbLine
10
70.503264995128134
20
45.144322644720361
30
-4.7597586610707938e-06
11
70.50326499513136
21
32.890441182797971
31
-4.7597586632662312e-06
0
LINE
5
119
100
AcDbEntity
8
0
100
AcDbLine
10
70.503234863330732
20
32.890441182797971
30
-4.7597586632662227e-06
11
70.503234863331414
21
31.894310430827968
31
-4.7597586634446925e-06
0
ARC
5
120
100
AcDbEntity
8
0
100
AcDbCircle
10
69.5032348633314
20
31.894310430907975
30
-4.7597586631650302e-06
40
1.0000000000199982
210
0
220
-1.7916282081287057e-16
230
1
100
AcDbArc
50
270
51
360
0
LINE
5
121
100
AcDbEntity
8
0
100
AcDbLine
10
69.5032348633314
20
30.894310430887977
30
-4.7597586633441938e-06
11
64.5032348633314
21
30.894310430887959
31
-4.7597586619458838e-06
0
ARC
5
122
100
AcDbEntity
8
0
100
AcDbCircle
10
64.5032348633314
20
31.894310430897974
30
-4.7597586617667211e-06
40
1.0000000000090026
210
2.7966222121447447e-16
220
-2.7686537351784993e-25
230
1
100
AcDbArc
50
180
51
270
0
LINE
5
123
100
AcDbEntity
8
0
100
AcDbLine
10
63.503234863322398
20
31.894310431887973
30
-4.7597586614870588e-06
11
63.503234863231341
21
32.894334844977976
31
-4.7597586613078918e-06
0
LINE
5
124
100
AcDbEntity
8
0
100
AcDbLine
10
63.503234863231341
20
32.894334844977976
30
-4.7597586613078918e-06
11
57.022415161131406
21
32.894334844977955
31
-4.7597586594954539e-06
0
ARC
5
125
100
AcDbEntity
8
0
100
AcDbCircle
10
56.272415161131413
20
33.894334844977948
30
-4.7597586591065447e-06
40
1.2500000000000069
210
2.649817214608893e-16
220
-1.9873629109566225e-16
230
1
100
AcDbArc
50
143.13010235415641
51
306.86989764584393
0
LINE
5
126
100
AcDbEntity
8
0
100
AcDbLine
10
55.272415161131399
20
34.644334844977948
30
-4.7597586586925099e-06
11
55.272415161131363
21
45.144334844977962
31
-4.7597586568113022e-06
0
ARC
5
127
100
AcDbEntity
8
0
100
AcDbCircle
10
56.272415161131377
20
45.894334844977962
30
-4.7597586569565921e-06
40
1.25
210
1.4680182118748316e-17
220
1.9573576158331377e-17
230
1
100
AcDbArc
50
53.130102354156435
51
216.86989764584362
0
LINE
5
128
100
AcDbEntity
8
0
100
AcDbLine
10
57.02241516113137
20
46.894334844977969
30
-4.7597586569871759e-06
11
68.275908996231323
21
46.894334844977969
31
-4.7597586601343497e-06
0
LINE
5
129
100
AcDbEntity
8
0
100
AcDbLine
10
68.275908996231323
20
46.894310430910259
30
-4.7597586601343539e-06
11
68.753248712546764
21
46.894310430887472
31
-4.7597586602678472e-06
0
LWPOLYLINE
5
130
100
AcDbEntity
8
0
100
AcDbPolyline
90
8
70
1
43
0.0
10
329.46204148659001
20
13.844310438253604
42
0.86692617078417888
10
331.21244017871328
20
15.59370052731671
10
331.2124381436854
20
25.726850714028178
42
1.0570286862285332
10
329.09387415578152
20
27.844410430908191
10
318.96103814453141
20
27.844410430908173
42
0.86667297894999074
10
317.20997315128227
20
26.095832515011459
10
317.20997315668797
20
15.592988342761025
42
0.86661460732194828
10
318.96090480044114
20
13.844310432978446
0
LWPOLYLINE
5
131
100
AcDbEntity
8
0
100
AcDbPolyline
90
8
70
1
43
0.0
10
305.6490414865894
20
13.844310438254031
42
0.86692617078443379
10
307.39944017871329
20
15.593700527316692
10
307.39943814368536
20
25.72685071402816
42
1.0570286862285676
10
305.28087415578142
20
27.844410430908173
10
295.14803814453143
20
27.844410430908155
42
0.86667297894999074
10
293.39697315128228
20
26.095832515011441
10
293.39697315668798
20
15.592988342761007
42
0.86661460732193818
10
295.1479048004411
20
13.844310432978428
0
LWPOLYLINE
5
132
100
AcDbEntity
8
0
100
AcDbPolyline
90
8
70
1
43
0.0
10
269.58497315668797
20
15.592988342760972
42
0.86661460822978853
10
271.3359048007145
20
13.844310436935121
10
281.83704148658938
20
13.844310438254013
42
0.86692555097501944
10
283.5874405094014
20
15.593698564510863
10
283.5874381436854
20
25.726850714028142
42
1.0570286862285503
10
281.46887415578141
20
27.844410430908155
10
271.33603814453136
20
27.844410430908137
42
0.86667297894999307
10
269.58497315128227
20
26.095832515011441
0
LWPOLYLINE
5
133
100
AcDbEntity
8
0
100
AcDbPolyline
90
8
70
1
43
0.0
10
188.62247315720893
20
15.593656522752646
42
0.86690691160070354
10
190.37290480073423
20
13.844310436949847
10
200.87404148657839
20
13.844310438262202
42
0.86692555097985668
10
202.62444050940135
20
15.593698564510792
10
202.62443814368538
20
25.726850714028071
42
1.0570286862167984
10
200.50587415583138
20
27.844410430908084
10
190.37303814453139
20
27.844410430908031
42
0.86696529920483156
10
188.62247315157362
20
26.095164334840195
0
LWPOLYLINE
5
134
100
AcDbEntity
8
0
100
AcDbPolyline
90
8
70
1
43
0.0
10
280.86003814453136
20
46.894410430908167
42
0.86724852291415289
10
279.10995788573314
20
45.144517454569488
10
279.10995788573314
20
34.644303407246838
42
0.86716090902858611
10
280.85983810285137
20
32.894260430908169
10
291.36110818621057
20
32.894260430907103
42
0.86689815649797319
10
293.11143814453141
20
34.643703243568154
10
293.11143814453135
20
45.145117618250779
42
0.86698574759598901
10
291.36090814453189
20
46.89441043090855
0
LWPOLYLINE
5
135
100
AcDbEntity
8
0
100
AcDbPolyline
90
8
70
1
43
0.0
10
223.71003814453135
20
46.894410430908096
42
0.86724852291415655
10
221.95995788573313
20
45.144517454569439
10
221.95995788573313
20
34.644303407246788
42
0.86716090902298848
10
223.70983810283138
20
32.894260430908119
10
234.21110818621059
20
32.894260430907053
42
0.86689815649798063
10
235.96143814453137
20
34.643703243568105
10
235.96143814453131
20
45.145117618250701
42
0.86698574759594071
10
234.21090814453197
20
46.894410430908593
0
LWPOLYLINE
5
136
100
AcDbEntity
8
0
100
AcDbPolyline
90
8
70
1
43
0.0
10
202.90995788573315
20
34.644303407246753
42
0.8671609090229746
10
204.65983810283939
20
32.89426043089744
10
215.16110818622337
20
32.89426043089744
42
0.8668981564923729
10
216.91143814453139
20
34.643703243568083
10
216.91143814453136
20
45.145117618250723
42
0.86698574759592673
10
215.16090814453202
20
46.894410430908593
10
204.66003814453134
20
46.894410430908103
42
0.86724852291415155
10
202.90995788573133
20
45.144517454568089
0
LWPOLYLINE
5
137
100
AcDbEntity
8
0
100
AcDbPolyline
90
8
70
1
43
0.0
10
166.56003814453135
20
46.894410430908067
42
0.86724852291415289
10
164.80995788573313
20
45.144517454569389
10
164.80995788573313
20
34.644303407246717
42
0.86716090902295617
10
166.55983810283135
20
32.894260430908062
10
177.06110818622341
20
32.894260430897404
42
0.86689815649234503
10
178.81143814453139
20
34.643703243568055
10
178.81143814453137
20
45.145117618250701
42
0.8669857475959355
10
177.06090814453199
20
46.894410430908536
0
LWPOLYLINE
5
138
100
AcDbEntity
8
0
100
AcDbPolyline
90
8
70
1
43
0.0
10
145.7599645102982
20
34.644312241888393
42
0.86716477823513971
10
147.50983810283938
20
32.89426043089739
10
158.01110818622337
20
32.894260430897404
42
0.86689815649238122
10
159.76143814453138
20
34.643703243568055
10
159.76143814453133
20
45.145117618250652
42
0.86698574759603098
10
158.01090814453178
20
46.894410430908387
10
147.51003814453134
20
46.894410430908053
42
0.86725239546547428
10
145.75996415236477
20
45.144508340819371
0
LWPOLYLINE
5
139
100
AcDbEntity
8
0
100
AcDbPolyline
90
8
70
1
43
0.0
10
60.034973144527406
20
15.594323756410962
42
0.86719900231609048
10
61.784904734417729
20
13.844310387226191
10
72.286041554645095
20
13.844310387226191
42
0.86692552117709076
10
74.036440509401302
20
15.593698564510685
10
74.036438143685359
20
25.726850714027929
42
1.057028686216795
10
71.917874155831385
20
27.84441043090796
10
61.78503814453137
20
27.84441043090796
42
0.86725743585340465
10
60.034973144531421
20
26.094497105397974
0
LWPOLYLINE
5
140
100
AcDbEntity
8
0
100
AcDbPolyline
90
8
70
1
43
0.0
10
99.884963989231295
20
65.944304327398001
42
0.86729540168104835
10
98.134963989207307
20
64.19430432742999
10
98.134963989207336
20
53.694304327365998
42
0.86729540168105279
10
99.884963989231323
20
51.944304327397994
10
110.38496398923132
20
51.944304327398001
42
0.86729540170908548
10
112.13496398923134
20
53.694304327448009
10
112.13496398920249
20
64.194304327359603
42
0.86729540171188502
10
110.3849639892313
20
65.944304327398001
0
LWPOLYLINE
5
141
100
AcDbEntity
8
0
100
AcDbPolyline
90
8
70
1
43
0.0
10
131.18498229981009
20
64.194328742123957
42
0.86728470697087756
10
129.43496398923131
20
65.944304327398015
10
118.93496398923131
20
65.944304327398015
42
0.86729540169506225
10
117.18496398923129
20
64.194304327398001
10
117.18496398923133
20
53.694304327398001
42
0.8672954016950617
10
118.93496398923133
20
51.944304327398008
10
129.43496398923133
20
51.944304327398008
42
0.86728470697087989
10
131.18498229983135
20
53.694279912688017
0
LWPOLYLINE
5
142
100
AcDbEntity
8
0
100
AcDbPolyline
90
8
70
1
43
0.0
10
157.03496398923133
20
65.944304327398015
42
0.86729153257963099
10
155.28495736482111
20
64.194313160026212
10
155.28495736482117
20
53.694295494769868
42
0.86729153257963487
10
157.03496398923136
20
51.944304327398044
10
167.53496398923133
20
51.944304327398065
42
0.86729934103692863
10
169.28495768695075
20
53.694313652069283
10
169.28495725082573
20
64.194295342941359
42
0.86729933736020759
10
167.5349639892313
20
65.944304327398058
0
LWPOLYLINE
5
143
100
AcDbEntity
8
0
100
AcDbPolyline
90
8
70
1
43
0.0
10
188.33497619631245
20
64.194320603782216
42
0.8672882718883117
10
186.58496398923134
20
65.944304327398072
10
176.08496398923131
20
65.944304327398072
42
0.86729540169505237
10
174.33496398923131
20
64.194304327398058
10
174.33496398923131
20
53.694304327398058
42
0.86729540169506425
10
176.08496398923134
20
51.944304327398065
10
186.58496398923134
20
51.944304327398065
42
0.86728827188833157
10
188.33497619633133
20
53.694288051028082
0
LWPOLYLINE
5
144
100
AcDbEntity
8
0
100
AcDbPolyline
90
8
70
1
43
0.0
10
233.2349639892613
20
65.9443043273981
42
0.86729927078022029
10
231.48497061367223
20
64.194295494931467
10
231.48497061367209
20
53.6943131598645
42
0.86729927078010161
10
233.2349639892613
20
51.944304327398108
10
243.73496398926133
20
51.944304327398115
42
0.86729146233752419
10
245.48497029154055
20
53.694295002627541
10
245.48497072765889
20
64.194313312012326
42
0.86729146600280016
10
243.7349639892613
20
65.944304327398115
0
LWPOLYLINE
5
145
100
AcDbEntity
8
0
100
AcDbPolyline
90
8
70
1
43
0.0
10
271.33496398926133
20
65.944304327398143
42
0.86729346713970468
10
269.58496067705369
20
64.194308743695288
10
269.58496067705369
20
53.694299911100956
42
0.86729346713968913
10
271.33496398926133
20
51.944304327398143
10
281.83496398926133
20
51.944304327398143
42
0.86729737136871965
10
283.5849608381148
20
53.694308989744101
10
283.58496062005668
20
64.194299835146339
42
0.86729736953267145
10
281.83496398926133
20
65.944304327398157
0
LWPOLYLINE
5
146
100
AcDbEntity
8
0
100
AcDbPolyline
90
8
70
1
43
0.0
10
318.95997619629128
20
84.994322637938197
42
0.86729540169507924
10
317.20997619629128
20
83.244322637938211
10
317.20997619629134
20
72.744322637938183
42
0.86729540169507735
10
318.95997619629134
20
70.994322637938183
10
329.45997619629139
20
70.994322637938154
42
0.86729540169522978
10
331.20997619629031
20
72.744322637938197
10
331.20997619629094
20
83.244322637937728
42
0.86729540169523756
10
329.45997619629139
20
84.994322637938211
0
LWPOLYLINE
5
147
100
AcDbEntity
8
0
100
AcDbPolyline
90
8
70
1
43
0.0
10
105.62304149641508
20
90.044310430886469
42
0.86723699146800204
10
107.37290814453121
20
91.79441043090803
10
107.37290814453118
20
102.29441043090799
42
0.8672954016950889
10
105.62290814453118
20
104.044410430908
10
95.122038144531189
20
104.044410430908
42
0.86729540169505825
10
93.372038144531189
20
102.294410430908
10
93.372038144531217
20
91.794410430907973
42
0.86723699146797983
10
95.121904792631256
20
90.044310430907984
0
LWPOLYLINE
5
148
100
AcDbEntity
8
0
100
AcDbPolyline
90
20
70
1
43
0.0
10
131.2322921001749
20
102.88463012704368
42
0.12954907593889403
10
131.47203814453118
20
102.29441043090803
10
131.47203814453121
20
91.794410430908016
42
0.86723699146797983
10
133.22190479263125
20
90.044310430908027
10
143.72304149641511
20
90.044310430886512
42
0.86723699146799715
10
145.47290814453123
20
91.794410430908044
10
145.4729081445312
20
102.29441043090802
42
0.8672954016950889
10
143.7229081445312
20
104.04441043090804
10
133.22203814453118
20
104.04441043090804
42
0.34934756481088586
10
131.66593193782205
20
103.99975999180941
42
1.0960546381768657
10
126.19883671193698
20
104.32812958176761
42
0.3607125600221095
10
124.30487415583119
20
104.04441043090802
10
114.1720381445312
20
104.04441043090802
42
0.86729540169505825
10
112.4220381445312
20
102.29441043090802
10
112.42203814453127
20
91.794410430908016
42
0.86723699146798228
10
114.17190479263124
20
90.044310430908013
10
124.6730414964151
20
90.044310430886497
42
0.86723699146799715
10
126.42290814453122
20
91.79441043090803
10
126.42290814384815
20
101.92637644154716
42
0.1398259197272945
10
126.86224538745165
20
102.62214475495561
42
0.4958440448956648
0
LWPOLYLINE
5
149
100
AcDbEntity
8
0
100
AcDbPolyline
90
8
70
1
43
0.0
10
162.77304149641512
20
90.044310430886526
42
0.86723699146797484
10
164.52290814453124
20
91.794410430908044
10
164.52290814453121
20
102.29441043090809
42
0.8672954016950567
10
162.77290814453121
20
104.04441043090806
10
152.27203814453119
20
104.04441043090806
42
0.8672954016950658
10
150.52203814453122
20
102.29441043090804
10
150.52203814453125
20
91.794410430908059
42
0.86723699146799715
10
152.27190479263126
20
90.044310430908041
0
LWPOLYLINE
5
150
100
AcDbEntity
8
0
100
AcDbPolyline
90
8
70
1
43
0.0
10
181.8230414964151
20
90.044310430886554
42
0.86723699146799715
10
183.57290814453123
20
91.794410430908073
10
183.57290814453123
20
102.29441043090807
42
0.86729540169506658
10
181.82290814453123
20
104.04441043090807
10
171.32203814453121
20
104.04441043090806
42
0.86729540169507402
10
169.57203814453123
20
102.29441043090804
10
169.57203814453123
20
91.794410430908059
42
0.86723699146798339
10
171.32190479263124
20
90.044310430908055
0
LWPOLYLINE
5
151
100
AcDbEntity
8
0
100
AcDbPolyline
90
20
70
1
43
0.0
10
207.43229882177204
20
102.88457798237334
42
0.12953838425648095
10
207.67203814453126
20
102.29441043090809
10
207.67203814453126
20
91.794410430908101
42
0.86723699146798339
10
209.42190479263127
20
90.044310430908098
10
219.92304149641512
20
90.044310430886568
42
0.86723699146797617
10
221.67290814453125
20
91.794410430908115
10
221.67290814453125
20
102.29441043090813
42
0.86729540169505437
10
219.92290814453122
20
104.04441043090812
10
209.42203814453123
20
104.0444104309081
42
0.34934118745252085
10
207.86595365775213
20
103.9997783182549
42
1.0960345639899103
10
202.39884774064166
20
104.32812291553537
42
0.36071498729185519
10
200.5048741558312
20
104.0444104309081
10
190.37203814453122
20
104.0444104309081
42
0.86729540169508268
10
188.62203814453125
20
102.29441043090809
10
188.62203814453125
20
91.794410430908073
42
0.86723699146797484
10
190.37190479263126
20
90.04431043090807
10
200.87304149641511
20
90.044310430886568
42
0.86723699146797961
10
202.62290814453124
20
91.794410430908101
10
202.62290814384818
20
101.92637644154728
42
0.13982199077839436
10
203.06223887832346
20
102.62212256843142
42
0.49584617997783098
0
LWPOLYLINE
5
152
100
AcDbEntity
8
0
100
AcDbPolyline
90
8
70
1
43
0.0
10
238.9730414963895
20
90.044310430905796
42
0.86723699147920319
10
240.72290814453126
20
91.794410430908115
10
240.72290814453123
20
102.29441043090813
42
0.86729540169505825
10
238.97290814453123
20
104.04441043090813
10
228.47203814453121
20
104.04441043090813
42
0.86729540169507069
10
226.72203814453124
20
102.2944104309081
10
226.72203814453127
20
91.794410430908115
42
0.86723699146799227
10
228.47190479263128
20
90.044310430908112
0
LWPOLYLINE
5
153
100
AcDbEntity
8
0
100
AcDbPolyline
90
8
70
1
43
0.0
10
258.02304149638951
20
90.044310430905796
42
0.86723699147921196
10
259.77290814453124
20
91.794410430908158
10
259.77290814453119
20
102.29441043090814
42
0.86729540169507402
10
258.02290814453124
20
104.04441043090814
10
247.52203814453122
20
104.04441043090813
42
0.86729540169506658
10
245.77203814453122
20
102.29441043090813
10
245.77203814453125
20
91.79441043090813
42
0.8672369914792164
10
247.52190479267125
20
90.044310430908126
0
LWPOLYLINE
5
154
100
AcDbEntity
8
0
100
AcDbPolyline
90
8
70
1
43
0.0
10
277.07304149638952
20
90.044310430905824
42
0.86723699147918942
10
278.82290814453125
20
91.794410430908158
10
278.8229081445312
20
102.29441043090816
42
0.86729540169505825
10
277.0729081445312
20
104.04441043090816
10
266.57203814453123
20
104.04441043090814
42
0.86729540169506658
10
264.82203814453123
20
102.29441043090814
10
264.82203814453123
20
91.794410430908158
42
0.86723699147920907
10
266.57190479267126
20
90.044310430908155
0
LWPOLYLINE
5
155
100
AcDbEntity
8
0
100
AcDbPolyline
90
20
70
1
43
0.0
10
302.6823042699844
20
102.88453572902858
42
0.12952972065874452
10
302.9220381445312
20
102.29441043090817
10
302.92203814453126
20
91.794410430908187
42
0.86723699147919908
10
304.67190479267123
20
90.044310430908183
10
315.17304149638949
20
90.044310430905853
42
0.86723699147920663
10
316.92290814453122
20
91.794410430908187
10
316.92290814453122
20
102.29441043090819
42
0.8672954016950617
10
315.17290814453122
20
104.04441043090819
10
304.6720381445312
20
104.04441043090819
42
0.34933938798236874
10
303.11595978645636
20
103.99978348926894
42
1.0960108035082927
10
297.64884286033418
20
104.32812586542309
42
0.36071391320599194
10
295.75487415578124
20
104.04441043090816
10
285.62203814453119
20
104.04441043090816
42
0.8672954016950567
10
283.87203814453125
20
102.29441043090816
10
283.87203814453125
20
91.794410430908158
42
0.86723699147920152
10
285.62190479267122
20
90.044310430908169
10
296.12304149638311
20
90.044310430910627
42
0.86723699148200528
10
297.87290814453127
20
91.794410430908187
10
297.87290814384824
20
101.92637644154742
42
0.13981426786250656
10
298.31222608261186
20
102.62207895785872
42
0.49584960270898532
0
LWPOLYLINE
5
156
100
AcDbEntity
8
0
100
AcDbPolyline
90
8
70
1
43
0.0
10
10.790704238931319
20
67.230735404737914
10
28.309757730831286
20
67.230735404737942
42
-0.41421356237309503
10
31.259757730831303
20
64.280735404737925
10
31.259757730831321
20
54.330765922737939
42
-0.41421356237309503
10
28.309757730831322
20
51.380765922737943
10
10.790704238831346
20
51.380765922737872
42
-0.41421356237309503
10
7.8407042388312931
20
54.330765922737925
10
7.8407042388313108
20
64.280735404737911
42
-0.41421356238302448
0
LWPOLYLINE
5
157
100
AcDbEntity
8
0
100
AcDbPolyline
90
4
70
1
43
0.0
10
149.48443814453123
20
108.20086043090804
10
79.834444248031218
20
108.20086043090797
42
-0.99999999999999989
10
79.834444248031218
20
109.70086043090799
10
149.48443814453123
20
109.70086043090805
42
-0.99999999999999989
0
LWPOLYLINE
5
158
100
AcDbEntity
8
0
100
AcDbPolyline
90
8
70
1
43
0.0
10
249.27247314453143
20
15.844310430908131
42
0.41421356237309503
10
250.27247314453143
20
14.844310430908134
10
255.27247314453143
20
14.844310430908134
42
0.41421356237309503
10
256.27247314453143
20
15.844310430908131
10
256.27247314453138
20
28.844310430908138
42
0.41421356237309503
10
255.27247314453138
20
29.844310430908134
10
250.27247314453138
20
29.844310430908134
42
0.41421356237309503
10
249.2724731445314
20
28.844310430908138
0
LWPOLYLINE
5
159
100
AcDbEntity
8
0
100
AcDbPolyline
90
8
70
1
43
0.0
10
134.97240619873142
20
15.844316534408023
10
134.97240619873145
20
28.844316534428014
42
-0.41421356237309503
10
135.97240619873136
20
29.844316534427922
10
140.97240619873136
20
29.844316534428046
42
-0.41421356237309503
10
141.97240619873139
20
28.844316534428032
10
141.97240619873139
20
15.844316534408041
42
-0.41421356237309503
10
140.97240619873139
20
14.844316534408044
10
135.97240619873139
20
14.844316534408044
42
-0.41421356237309503
0
LWPOLYLINE
5
160
100
AcDbEntity
8
0
100
AcDbPolyline
90
4
70
1
43
0.0
10
240.57559814453143
20
29.344310430908145
42
0.99999999999999989
10
240.5755981445314
20
31.344310430908138
10
150.66934814453137
20
31.344310430908049
42
0.99999999999999989
10
150.66934814453137
20
29.344310430908038
0
LWPOLYLINE
5
161
100
AcDbEntity
8
0
100
AcDbPolyline
90
8
70
1
43
0.0
10
323.72203814453115
20
127.8574104309082
42
0.8672954016950567
10
321.97203814453121
20
126.10741043090819
10
321.97203814453121
20
115.6074104309082
42
0.86729540169507668
10
323.72203814453121
20
113.85741043090819
10
334.22290814453117
20
113.8574104309082
42
0.8672954016950567
10
335.97290814453117
20
115.60741043090822
10
335.97290814453117
20
126.1074104309082
42
0.86729540169507668
10
334.22290814453112
20
127.85741043090822
0
LWPOLYLINE
5
162
100
AcDbEntity
8
0
100
AcDbPolyline
90
20
70
1
43
0.0
10
62.359481811531197
20
88.044310430907984
10
57.359481811531197
20
88.044310430908155
42
-0.41421356237309503
10
56.359481811531396
20
89.044310430907956
10
56.359481811531218
20
90.044310430907956
10
56.272482299831239
20
90.044310430907927
42
-0.41421356237309503
10
55.272482299831225
20
91.044310430907956
10
55.272482299831296
20
103.04431047461796
42
-0.41421354957073375
10
56.272482299831204
20
104.04431043090787
10
87.322482299831208
20
104.04431043090801
42
-0.41421356237309503
10
88.322482299831222
20
103.044310430908
10
88.322482299831236
20
91.044310474617987
42
-0.41421357517545637
10
87.32248229983125
20
90.044310430907984
10
87.235458374031225
20
90.044310430907984
10
87.235458374031253
20
89.044310430907984
42
-0.41421356237309503
10
86.235458374031253
20
88.044310430907984
10
81.235458374031253
20
88.044310430908467
42
-0.41421356237309503
10
80.235458374031737
20
89.044310430907984
10
80.235458374031225
20
90.04431043090797
10
63.359481811531211
20
90.04431043090797
10
63.359481811531197
20
89.04431043090797
42
-0.41421356237309503
0
LWPOLYLINE
5
163
100
AcDbEntity
8
0
100
AcDbPolyline
90
8
70
1
43
0.0
10
305.64697619629129
20
70.994322637938183
42
0.86700328045534492
10
307.39747619629048
20
72.743655507897586
10
307.39747619629048
20
83.24498976797878
42
0.86700328045534392
10
305.64697619629123
20
84.994322637938183
10
295.14697619629123
20
84.994322637938183
42
0.8672954016950658
10
293.39697619629129
20
83.244322637938168
10
293.39697619629129
20
72.744322637938154
42
0.86729540169505748
10
295.14697619629129
20
70.994322637938168
0
LWPOLYLINE
5
164
100
AcDbEntity
8
0
100
AcDbPolyline
90
8
70
1
43
0.0
10
321.97203814453127
20
91.794410430908201
42
0.86723699148060862
10
323.72190479267624
20
90.044310430908268
10
334.22304149638626
20
90.044310430908268
42
0.86723699148060007
10
335.97290814453123
20
91.794410430908201
10
335.97290814453123
20
102.29441043090821
42
0.86729540169507202
10
334.22290814453117
20
104.0444104309082
10
323.72203814453121
20
104.0444104309082
42
0.86729540169509145
10
321.97203814453127
20
102.29441043090819
0
LWPOLYLINE
5
165
100
AcDbEntity
8
0
100
AcDbPolyline
90
8
70
1
43
0.0
10
302.63496398926134
20
64.194304327398171
42
0.86729540169506225
10
300.88496398926134
20
65.944304327398171
10
290.38496398926134
20
65.944304327398157
42
0.86729540169506225
10
288.63496398926134
20
64.194304327398157
10
288.63496398926134
20
53.694304327398157
42
0.86729540169506425
10
290.38496398926134
20
51.944304327398157
10
300.88496398926134
20
51.944304327398171
42
0.86729540169507147
10
302.63496398926134
20
53.694304327398171
0
LWPOLYLINE
5
166
100
AcDbEntity
8
0
100
AcDbPolyline
90
8
70
1
43
0.0
10
64.740473144531308
20
52.944310430907969
10
59.740473144531308
20
52.944310430907947
42
-0.41421356237309503
10
58.740473144531293
20
53.944310430907962
10
58.740473144531279
20
66.944310430907962
42
-0.41421356237309503
10
59.740473144531272
20
67.944310430907947
10
64.740473144531279
20
67.944310430907976
42
-0.41421356237309503
10
65.740473144531279
20
66.944310430907962
10
65.740473144531308
20
53.944310430907969
42
-0.41421356237309503
0
LWPOLYLINE
5
167
100
AcDbEntity
8
0
100
AcDbPolyline
90
8
70
1
43
0.0
10
302.62847314453137
20
45.894310430908178
10
307.62847314453137
20
45.894310430908199
42
-0.41421356237309503
10
308.62847314453137
20
44.894310430908185
10
308.62847314453143
20
31.894310430908188
42
-0.41421356237309503
10
307.62847314453143
20
30.894310430908192
10
302.62847314453143
20
30.894310430908174
42
-0.41421356237309503
10
301.62847314453137
20
31.894310430908188
10
301.62847314453137
20
44.894310430908178
42
-0.41421356237309503
0
LWPOLYLINE
5
168
100
AcDbEntity
8
0
100
AcDbPolyline
90
8
70
1
43
0.0
10
332.50447314453135
20
44.894310430908206
10
332.5044731445314
20
31.894310430908206
42
-0.41421356237309503
10
331.5044731445314
20
30.894310430908209
10
326.5044731445314
20
30.894310430908192
42
-0.41421356237309503
10
325.5044731445314
20
31.894310430908206
10
325.5044731445314
20
44.894310430908206
42
-0.41421356237309503
10
326.5044731445314
20
45.894310430908199
10
331.5044731445314
20
45.894310430908149
42
-0.41421356237309503
0
LWPOLYLINE
5
169
100
AcDbEntity
8
0
100
AcDbPolyline
90
8
70
1
43
0.0
10
68.928955156841198
20
65.944310951629632
42
0.86700477048996327
10
67.178473157287357
20
64.194959216520402
10
67.178473157287542
20
53.693649438275685
42
0.86701250932241203
10
68.928973100559077
20
51.944310593950973
10
79.428955004803498
20
51.944311065781925
42
0.86729933736159037
10
81.178963989231335
20
53.694304327447988
10
81.178963989202515
20
64.194304327359561
42
0.86729146234528398
10
79.428973314030628
20
65.944310629682008
0
LWPOLYLINE
5
170
100
AcDbEntity
8
0
100
AcDbPolyline
90
8
70
1
43
0.0
10
83.616473144531298
20
67.944310430907976
10
88.616473144531298
20
67.94431043090799
42
-0.41421356237309503
10
89.616473144531312
20
66.94431043090799
10
89.616473144531327
20
53.944310430907983
42
-0.41421356237309503
10
88.616473144531341
20
52.94431043090799
10
83.616473144531341
20
52.944310430907962
42
-0.41421356237309503
10
82.616473144531312
20
53.944310430907976
10
82.616473144531284
20
66.944310430907976
42
-0.41421356237309503
0
LWPOLYLINE
5
171
100
AcDbEntity
8
0
100
AcDbPolyline
90
4
70
1
43
0.0
10
230.44643814453121
20
108.20086043090811
10
160.79644424803121
20
108.20086043090804
42
-0.99999999999999989
10
160.79644424803121
20
109.70086043090805
10
230.44643814453121
20
109.70086043090814
42
-0.99999999999999989
0
LWPOLYLINE
5
172
100
AcDbEntity
8
0
100
AcDbPolyline
90
4
70
1
43
0.0
10
311.4093381445312
20
108.20086043090818
10
241.75934424805121
20
108.20086043090811
42
-0.99999999999999989
10
241.75934424805121
20
109.70086043090814
10
311.4093381445312
20
109.70086043090819
42
-0.99999999999999989
0
LWPOLYLINE
5
173
100
AcDbEntity
8
0
100
AcDbPolyline
90
4
70
1
43
0.0
10
322.72203814453121
20
109.70086043090819
10
335.22290814453123
20
109.70086043090819
42
-0.99999999999999989
10
335.22290814453123
20
108.20086043090822
10
322.72203814453121
20
108.20086043090818
42
-0.99999999999999989
0
LWPOLYLINE
5
174
100
AcDbEntity
8
0
100
AcDbPolyline
90
4
70
1
43
0.0
10
12.051594145963627
20
109.70086043090791
42
0.99999999999999989
10
12.051594145963733
20
108.20086043090804
10
44.709438144531184
20
108.20086043090795
42
0.99999999999999989
10
44.709438144531184
20
109.70086043090795
0
LWPOLYLINE
5
175
100
AcDbEntity
8
0
100
AcDbPolyline
90
4
70
1
43
0.0
10
49.615438144531367
20
28.594340430907952
10
49.615438144531225
20
103.29431043090796
42
-0.99999999999999989
10
51.115438144531211
20
103.29431043090796
10
51.115438144531424
20
28.594340430907952
42
-0.99999999999999989
0
LWPOLYLINE
5
176
100
AcDbEntity
8
0
100
AcDbPolyline
90
8
70
1
43
0.0
10
261.80803814453111
20
127.85741043090815
42
0.86729540169505204
10
260.05803814453117
20
126.10741043090815
10
260.05803814453117
20
115.60741043090815
42
0.86729540169507668
10
261.80803814453122
20
113.85741043090815
10
272.30890814453119
20
113.85741043090816
42
0.86704812995435043
10
274.05933184192412
20
115.6068460917576
10
274.05933204102104
20
126.10797595923498
42
0.86704775468493778
10
272.3089081445325
20
127.85741043090917
0
LWPOLYLINE
5
177
100
AcDbEntity
8
0
100
AcDbPolyline
90
8
70
1
43
0.0
10
242.75803814453116
20
127.85741043090815
42
0.86729540169505825
10
241.00803814453116
20
126.10741043090813
10
241.00803814453121
20
115.60741043090813
42
0.8672954016948653
10
242.75803814453121
20
113.85741043090712
10
253.25890814453118
20
113.85741043090815
42
0.86704024601372653
10
255.00934444714272
20
115.60682741791888
10
255.00934424805115
20
126.10799225473832
42
0.86704062127724879
10
253.25890814453115
20
127.85741043090815
0
LWPOLYLINE
5
178
100
AcDbEntity
8
0
100
AcDbPolyline
90
8
70
1
43
0.0
10
231.19643814453104
20
126.10811761825059
42
0.86698574759627711
10
229.44590814453113
20
127.85741043090812
10
218.94503814453117
20
127.8574104309081
42
0.86729540169508423
10
217.19503814453117
20
126.1074104309081
10
217.1950381445312
20
115.60741043090812
42
0.8672954016950567
10
218.94503814453117
20
113.8574104309081
10
229.44590814453119
20
113.85741043090812
42
0.86698574759609137
10
231.19643814453121
20
115.60670324356511
0
LWPOLYLINE
5
179
100
AcDbEntity
8
0
100
AcDbPolyline
90
8
70
1
43
0.0
10
212.14645035153097
20
126.10813391852304
42
0.86697861329492243
10
210.39590814453112
20
127.8574104309081
10
199.89503814453116
20
127.85741043090809
42
0.86729540169508423
10
198.14503814453116
20
126.10741043090809
10
198.14503814453118
20
115.60741043090809
42
0.8672954016950567
10
199.89503814453116
20
113.85741043090809
10
210.39590814453121
20
113.85741043090809
42
0.86697861329484249
10
212.1464503515312
20
115.6066869432931
0
LWPOLYLINE
5
180
100
AcDbEntity
8
0
100
AcDbPolyline
90
8
70
1
43
0.0
10
180.84503814453115
20
127.85741043090808
42
0.86729540169505204
10
179.09503814453117
20
126.10741043090809
10
179.0950381445312
20
115.60741043090808
42
0.86729540169508423
10
180.8450381445312
20
113.85741043090806
10
191.34590814453119
20
113.85741043090806
42
0.86698969015745442
10
193.09643184185927
20
115.60671258324516
10
193.09643204103116
20
126.108109468322
42
0.86698931470698748
10
191.3459081445325
20
127.8574104309091
0
LWPOLYLINE
5
181
100
AcDbEntity
8
0
100
AcDbPolyline
90
8
70
1
43
0.0
10
161.79503814453116
20
127.85741043090806
42
0.8672954016950617
10
160.04503814453116
20
126.10741043090806
10
160.04503814453116
20
115.60741043090803
42
0.86729540169485286
10
161.79503814453116
20
113.85741043090705
10
172.29590814453118
20
113.85741043090805
42
0.8669818050148459
10
174.04644444719713
20
115.60669390376719
10
174.04644424803115
20
126.10812576831782
42
0.86698218045859876
10
172.2959081445311
20
127.85741043090808
0
LWPOLYLINE
5
182
100
AcDbEntity
8
0
100
AcDbPolyline
90
8
70
1
43
0.0
10
137.98303814453118
20
127.85741043090803
42
0.8672954016950617
10
136.23303814453118
20
126.10741043090805
10
136.23303814453118
20
115.60741043090802
42
0.8672954016950617
10
137.98303814453118
20
113.85741043090803
10
148.4839081445312
20
113.85741043090803
42
0.86698393888887981
10
150.23444050940384
20
115.60669856449479
10
150.23443807049028
20
126.10811751938392
42
0.86698579086860317
10
148.4839081445312
20
127.85741043090806
0
LWPOLYLINE
5
183
100
AcDbEntity
8
0
100
AcDbPolyline
90
8
70
1
43
0.0
10
118.93303814453117
20
127.85741043090802
42
0.8672954016950617
10
117.18303814453115
20
126.10741043090803
10
117.18303814453115
20
115.607410430908
42
0.8672954016950617
10
118.93303814453117
20
113.85741043090802
10
129.43390814453119
20
113.85741043090802
42
0.86697786241321062
10
131.18445074985721
20
115.60668456384977
10
131.18445035153101
20
126.10813391852298
42
0.86697861329490356
10
129.43390814453119
20
127.85741043090802
0
LWPOLYLINE
5
184
100
AcDbEntity
8
0
100
AcDbPolyline
90
8
70
1
43
0.0
10
99.883038144531156
20
127.857410430908
42
0.8672954016950617
10
98.133038144531142
20
126.107410430908
10
98.133038144531142
20
115.60741043090799
42
0.8672954016950617
10
99.883038144531156
20
113.857410430908
10
110.38390814453116
20
113.85741043090803
42
0.86698969015747662
10
112.13443184185927
20
115.6067125832451
10
112.134432041031
20
126.10810946832167
42
0.86698931470710194
10
110.38390814453254
20
127.85741043090903
0
LWPOLYLINE
5
185
100
AcDbEntity
8
0
100
AcDbPolyline
90
8
70
1
43
0.0
10
80.833038144531173
20
127.85741043090798
42
0.8672954016950617
10
79.083038144531173
20
126.10741043090799
10
79.083038144531173
20
115.60741043090798
42
0.86729540169485286
10
80.833038144531173
20
113.85741043090698
10
91.333908144531151
20
113.85741043090802
42
0.86698180501486322
10
93.084444447197143
20
115.60669390376714
10
93.084444248031161
20
126.10812576831771
42
0.86698218045861997
10
91.333908144531151
20
127.85741043090798
0
LWPOLYLINE
5
186
100
AcDbEntity
8
0
100
AcDbPolyline
90
8
70
1
43
0.0
10
57.020038144531178
20
127.85741043090796
42
0.8672954016950617
10
55.270038144531171
20
126.10741043090798
10
55.270038144531171
20
115.60741043090795
42
0.8672954016950617
10
57.020038144531178
20
113.85741043090796
10
67.520908144531148
20
113.85741043090796
42
0.8669839388888877
10
69.271440509403774
20
115.60669856449472
10
69.271438070490319
20
126.10811751938394
42
0.86698579086857697
10
67.52090814453112
20
127.85741043090796
0
LWPOLYLINE
5
187
100
AcDbEntity
8
0
100
AcDbPolyline
90
8
70
1
43
0.0
10
-4.8919618554688782
20
127.85741043090793
42
0.86729540169503938
10
-6.6419618554688498
20
126.10741043090792
10
-6.6419618554688498
20
115.60741043090789
42
0.86729540169484254
10
-4.8919618554688782
20
113.85741043090691
10
5.6089081445311706
20
113.85741043090792
42
0.86698969015748806
10
7.3594318418592053
20
115.60671258324501
10
7.3594320410311553
20
126.10810946832176
42
0.86698931470760743
10
5.6089081445312416
20
127.85741043090792
0
LWPOLYLINE
5
188
100
AcDbEntity
8
0
100
AcDbPolyline
90
20
70
1
43
0.0
10
31.653653386198926
20
104.00120986682285
42
1.0959710695424802
10
26.186377343486704
20
104.32719710244652
42
0.36105179107668922
10
24.290874155831226
20
104.04441043090793
10
14.158038144531204
20
104.04441043090793
42
0.86729540169505825
10
12.408038144531197
20
102.29441043090793
10
12.408038144531233
20
91.794410430907902
42
0.86723699146796973
10
14.157904792631228
20
90.044310430907913
10
24.659041496415099
20
90.044310430886412
42
0.86693805621843212
10
26.409419833735761
20
91.793727693823897
10
26.409419833439038
20
101.92683432148236
42
0.13994879477405953
10
26.848641609547812
20
102.6234976731122
42
0.4957789684042212
10
31.21853037150629
20
102.88279211322468
42
0.12917219416772552
10
31.458038144531209
20
102.29441043090794
10
31.458038144531244
20
91.794410430907917
42
0.86723699146796973
10
33.20790479263124
20
90.044310430907927
10
43.709041496415075
20
90.044310430886426
42
0.86692554666796595
10
45.459440509403777
20
91.793698564495429
10
45.459438070490172
20
102.29511751938369
42
0.86698579086867888
10
43.708908144531158
20
104.04441043090796
10
33.208038144531216
20
104.04441043090796
42
0.3488425737617224
0
LWPOLYLINE
5
189
100
AcDbEntity
8
0
100
AcDbPolyline
90
8
70
1
43
0.0
10
5.6090414964150881
20
90.044310430886412
42
0.86693129422987725
10
7.3594314043892695
20
91.793712243586313
10
7.3594320410312264
20
102.29510946832175
42
0.86698931470761242
10
5.6089081445313127
20
104.04441043090792
10
-4.8919618554688071
20
104.04441043090793
42
0.8672954016950446
10
-6.6419618554687787
20
102.2944104309079
10
-6.6419618554687787
20
91.794410430907902
42
0.86723699146797484
10
-4.8920952073687829
20
90.044310430907899
0
LWPOLYLINE
5
190
100
AcDbEntity
8
0
100
AcDbPolyline
90
8
70
1
43
0.0
10
43.709041496415111
20
70.994310430886415
42
0.86692616647382192
10
45.459440178727455
20
72.743700527297335
10
45.459438070490279
20
83.24511751938374
42
0.86698579086864647
10
43.708908144531264
20
84.994410430907948
10
33.208038144531251
20
84.994410430907948
42
0.8672954016950567
10
31.45803814453128
20
83.244410430907934
10
31.45803814453128
20
72.744410430907919
42
0.8672369914679765
10
33.207904792631275
20
70.99431043090793
0
LWPOLYLINE
5
191
100
AcDbEntity
8
0
100
AcDbPolyline
90
8
70
1
43
0.0
10
24.659041496415135
20
70.994310430886415
42
0.86693805635555554
10
26.409419833264636
20
72.743727693960068
10
26.409419834031169
20
83.245093168879293
42
0.86699644885166882
10
24.658908144531644
20
84.994410430908232
10
14.15803814453124
20
84.994410430907919
42
0.8672954016950567
10
12.408038144531268
20
83.244410430907919
10
12.408038144531268
20
72.744410430907905
42
0.86723699146797872
10
14.157904792631264
20
70.994310430907916
0
LWPOLYLINE
5
192
100
AcDbEntity
8
0
100
AcDbPolyline
90
8
70
1
43
0.0
10
5.6090414964151591
20
70.994310430886415
42
0.86693129422987636
10
7.3594314043893405
20
72.743712243586302
10
7.3594320410312264
20
83.245109468321758
42
0.86698931470760743
10
5.6089081445313127
20
84.994410430907905
10
-4.8919618554688071
20
84.994410430907948
42
0.86729540169504926
10
-6.6419618554687787
20
83.244410430907891
10
-6.6419618554687077
20
72.744410430907891
42
0.86723699146797406
10
-4.8920952073687118
20
70.994310430907902
0
LWPOLYLINE
5
193
100
AcDbEntity
8
0
100
AcDbPolyline
90
8
70
1
43
0.0
10
43.709001486934476
20
13.844340430912041
42
0.86694368490640406
10
45.459440178713209
20
15.59370052731655
10
45.459438070490421
20
26.095117519383706
42
0.86698579086865935
10
43.708908144531335
20
27.844410430907942
10
33.208038144531393
20
27.844410430907942
42
0.8672954016950658
10
31.458038144531422
20
26.094410430907935
10
31.458038144531422
20
15.59441043090791
42
0.86725451528327813
10
33.207944802131415
20
13.844340430907938
0
LWPOLYLINE
5
194
100
AcDbEntity
8
0
100
AcDbPolyline
90
8
70
1
43
0.0
10
24.659001486934464
20
13.844340430912023
42
0.86695557498591502
10
26.409419833264778
20
15.593727693960044
10
26.409419834031382
20
26.095093168879444
42
0.86699644885161053
10
24.65890814453175
20
27.844410430908209
10
14.158038144531382
20
27.844410430907924
42
0.8672954016950658
10
12.40803814453141
20
26.094410430907917
10
12.40803814453141
20
15.594410430907892
42
0.86725451528327813
10
14.157944802131404
20
13.84434043090792
0
LWPOLYLINE
5
195
100
AcDbEntity
8
0
100
AcDbPolyline
90
8
70
1
43
0.0
10
5.6090014869345595
20
13.844340430911988
42
0.8669488127518663
10
7.359431404374206
20
15.593712243606674
10
7.3594320410313685
20
26.095109468321738
42
0.86698931470761242
10
5.6089081445314548
20
27.844410430907907
10
-4.891961855468665
20
27.844410430907907
42
0.86729540169504804
10
-6.6419618554686366
20
26.094410430907899
10
-6.6419618554685655
20
15.594410430907875
42
0.86725451528329822
10
-4.8920551978685012
20
13.844340430907902
0
LWPOLYLINE
5
196
100
AcDbEntity
8
0
100
AcDbPolyline
90
8
70
1
43
0.0
10
24.659108186223406
20
32.894260430897262
42
0.86689815649236124
10
26.409438144530135
20
34.643703243567003
10
26.409438144531165
20
45.145117618250303
42
0.8669857475961289
10
24.658908144531786
20
46.894410430908252
10
14.158038144531346
20
46.894410430907939
42
0.86729540169506059
10
12.408038144531339
20
45.144410430907918
10
12.408038144531375
20
34.644410430907904
42
0.86720778373805685
10
14.157838102831377
20
32.89426043090792
0
LWPOLYLINE
5
197
100
AcDbEntity
8
0
100
AcDbPolyline
90
8
70
1
43
0.0
10
276.09697619629128
20
84.994322637938154
42
0.86729540169506658
10
274.34697619629128
20
83.244322637938154
10
274.34697619629128
20
72.744322637938154
42
0.86729540169506991
10
276.09697619629128
20
70.994322637938154
10
286.59697619629134
20
70.994322637938168
42
0.8670032804553548
10
288.34747619629127
20
72.743655507898168
10
288.34747619629047
20
83.244989767978765
42
0.86700328045534047
10
286.59697619629128
20
84.994322637938183
0
LWPOLYLINE
5
198
100
AcDbEntity
8
0
100
AcDbPolyline
90
8
70
1
43
0.0
10
257.04697619629127
20
84.99432263793814
42
0.86729540169505825
10
255.29697619629127
20
83.244322637938126
10
255.2969761962913
20
72.74432263793814
42
0.86729540169505981
10
257.04697619629133
20
70.99432263793814
10
267.54697619629133
20
70.99432263793814
42
0.86700722284555054
10
269.29746989362138
20
72.74366484675302
10
269.29746945618456
20
83.244980768756903
42
0.86700721947906922
10
267.54697619629127
20
84.99432263793814
0
LWPOLYLINE
5
199
100
AcDbEntity
8
0
100
AcDbPolyline
90
8
70
1
43
0.0
10
237.99697619629126
20
84.994322637938126
42
0.86729540169506658
10
236.24697619629126
20
83.244322637938112
10
236.24697619629131
20
72.744322637938112
42
0.86729540169506736
10
237.99697619629129
20
70.994322637938126
10
248.49697619629131
20
70.994322637938126
42
0.86699933805034879
10
250.247482498945
20
72.743646168935982
10
250.24748293638294
20
83.244998767351348
42
0.86699934140751544
10
248.49697619629126
20
84.99432263793814
0
LWPOLYLINE
5
200
100
AcDbEntity
8
0
100
AcDbPolyline
90
8
70
1
43
0.0
10
218.94697619633126
20
84.994322637938097
42
0.86729540169507202
10
217.19697619633124
20
83.244322637938112
10
217.19697619633132
20
72.744322637938097
42
0.86729540169505004
10
218.94697619633126
20
70.994322637938097
10
229.4469761962913
20
70.994322637938112
42
0.86700328045533026
10
231.19747619629129
20
72.743655507898112
10
231.19747619629044
20
83.244989767978709
42
0.86700328045536168
10
229.44697619629125
20
84.994322637938097
0
LWPOLYLINE
5
201
100
AcDbEntity
8
0
100
AcDbPolyline
90
8
70
1
43
0.0
10
199.89697619633125
20
84.994322637938069
42
0.86729540169508801
10
198.14697619633125
20
83.244322637938083
10
198.14697619633131
20
72.744322637938083
42
0.86729540169505981
10
199.89697619633131
20
70.994322637938083
10
210.39697619633131
20
70.994322637938097
42
0.86700328043571884
10
212.1474761963313
20
72.743655507828095
10
212.14747619636884
20
83.244989768029939
42
0.86700328043292207
10
210.39697619633125
20
84.994322637938097
0
LWPOLYLINE
5
202
100
AcDbEntity
8
0
100
AcDbPolyline
90
8
70
1
43
0.0
10
180.84697619633124
20
84.994322637938069
42
0.86729540169508423
10
179.09697619633124
20
83.244322637938069
10
179.0969761963313
20
72.744322637938069
42
0.86729540169505981
10
180.8469761963313
20
70.994322637938069
10
191.3469761963313
20
70.994322637938083
42
0.86700328045534958
10
193.09747619633129
20
72.743655507898083
10
193.09747619633046
20
83.244989767978694
42
0.86700328045535779
10
191.34697619633124
20
84.994322637938069
0
LWPOLYLINE
5
203
100
AcDbEntity
8
0
100
AcDbPolyline
90
8
70
1
43
0.0
10
161.79697619633123
20
84.994322637938069
42
0.86729540169504804
10
160.04697619633129
20
83.244322637938069
10
160.04697619633129
20
72.744322637938041
42
0.86729540169505981
10
161.79697619633129
20
70.994322637938041
10
172.29697619633129
20
70.994322637938055
42
0.86700722288397769
10
174.04746989358583
20
72.74366484683334
10
174.04746945615591
20
83.244980768665158
42
0.86700721951917337
10
172.29697619633129
20
84.994322637938069
0
LWPOLYLINE
5
204
100
AcDbEntity
8
0
100
AcDbPolyline
90
8
70
1
43
0.0
10
142.74697619633122
20
84.994322637938041
42
0.86729540169505204
10
140.99697619633127
20
83.244322637938041
10
140.99697619633127
20
72.744322637938026
42
0.86729540169505981
10
142.74697619633127
20
70.994322637938026
10
153.24697619633127
20
70.994322637938041
42
0.8669993380418286
10
154.99748249898263
20
72.743646168903737
10
154.99748293643341
20
83.244998767365274
42
0.86699934140140322
10
153.24697619633125
20
84.994322637938055
0
LWPOLYLINE
5
205
100
AcDbEntity
8
0
100
AcDbPolyline
90
8
70
1
43
0.0
10
123.69697619633126
20
84.994322637938041
42
0.86729540169504804
10
121.94697619633129
20
83.244322637938026
10
121.94697619633129
20
72.744322637938012
42
0.86729540169505981
10
123.69697619633129
20
70.994322637938012
10
134.19697619633129
20
70.994322637938026
42
0.86700328045534747
10
135.94747619633128
20
72.74365550789804
10
135.94747619633051
20
83.244989767978623
42
0.86700328045535058
10
134.19697619633126
20
84.994322637938041
0
LWPOLYLINE
5
206
100
AcDbEntity
8
0
100
AcDbPolyline
90
8
70
1
43
0.0
10
104.64697619633125
20
84.994322637937998
42
0.86729540169505204
10
102.89697619633128
20
83.244322637938012
10
102.89697619633128
20
72.744322637937998
42
0.8672954016950617
10
104.64697619633128
20
70.994322637937998
10
115.14697619633128
20
70.994322637938012
42
0.86700328043571695
10
116.89747619633127
20
72.743655507828009
10
116.8974761963689
20
83.244989768029853
42
0.8670032804329233
10
115.14697619633125
20
84.994322637938012
0
LWPOLYLINE
5
207
100
AcDbEntity
8
0
100
AcDbPolyline
90
8
70
1
43
0.0
10
85.596976196331241
20
84.994322637937998
42
0.86729540169504804
10
83.846976196331269
20
83.244322637937984
10
83.846976196331269
20
72.744322637937969
42
0.86729540169505748
10
85.596976196331269
20
70.994322637937984
10
96.096976196331269
20
70.994322637937998
42
0.86700328045534747
10
97.847476196331257
20
72.743655507897998
10
97.84747619633049
20
83.244989767978581
42
0.86700328045535935
10
96.096976196331241
20
84.994322637937998
0
LWPOLYLINE
5
208
100
AcDbEntity
8
0
100
AcDbPolyline
90
8
70
1
43
0.0
10
74.034957973155315
20
83.245633461799997
42
0.8667216396599291
10
72.283976196331253
20
84.994322637937984
10
61.783976196331238
20
84.994322637937955
42
0.8672954016950567
10
60.033976196331267
20
83.244322637937955
10
60.033976196331267
20
72.744322637937955
42
0.86729540169505981
10
61.783976196331274
20
70.994322637937955
10
72.283976196331281
20
70.994322637937969
42
0.86672163965991844
10
74.03495797313127
20
72.743011814057979
0
LWPOLYLINE
5
209
100
AcDbEntity
8
0
100
AcDbPolyline
90
8
70
1
43
0.0
10
252.28496398926129
20
65.944304327398129
42
0.86729153257624625
10
250.53495736484535
20
64.194313160034
10
250.53495736484521
20
53.694295494762031
42
0.8672915325761511
10
252.28496398926131
20
51.944304327398129
10
262.78496398926131
20
51.944304327398136
42
0.86729934103802264
10
264.53495768696638
20
53.69431365206254
10
264.5349572508498
20
64.194295342933543
42
0.86729933736365172
10
262.78496398926131
20
65.944304327398143
0
LWPOLYLINE
5
210
100
AcDbEntity
8
0
100
AcDbPolyline
90
8
70
1
43
0.0
10
226.43498229981006
20
64.194328742124029
42
0.86728470697090176
10
224.68496398923128
20
65.9443043273981
10
214.18496398923133
20
65.9443043273981
42
0.86729540169508001
10
212.43496398923131
20
64.194304327398086
10
212.43496398923133
20
53.6943043273981
42
0.86729540169507591
10
214.18496398923133
20
51.9443043273981
10
224.68496398923133
20
51.944304327398108
42
0.86728470697088966
10
226.43498229983129
20
53.69427991268811
0
LWPOLYLINE
5
211
100
AcDbEntity
8
0
100
AcDbPolyline
90
8
70
1
43
0.0
10
195.13496398923132
20
65.944304327398072
42
0.86729540168107011
10
193.38496398920734
20
64.194304327430075
10
193.38496398920734
20
53.694304327366076
42
0.86729540168105024
10
195.13496398923132
20
51.944304327398079
10
205.63496398923135
20
51.944304327398079
42
0.86729540170907371
10
207.38496398923132
20
53.694304327448101
10
207.3849639892025
20
64.194304327359689
42
0.86729540171188502
10
205.63496398923132
20
65.9443043273981
0
LWPOLYLINE
5
212
100
AcDbEntity
8
0
100
AcDbPolyline
90
8
70
1
43
0.0
10
137.98496398923132
20
65.944304327398029
42
0.86729927076392221
10
136.23497061361437
20
64.194295494968557
10
136.23497061361431
20
53.694313159827374
42
0.86729927076386659
10
137.98496398923135
20
51.944304327398029
10
148.48496398923135
20
51.944304327398029
42
0.86729146235620458
10
150.2349702914938
20
53.694295002681478
10
150.23497072760009
20
64.194313311973815
42
0.86729146601962082
10
148.48496398923132
20
65.944304327398044
0
LWPOLYLINE
5
213
100
AcDbEntity
8
0
100
AcDbPolyline
90
8
70
1
43
0.0
10
96.099041554645083
20
13.844310387226191
42
0.86692614098648613
10
97.849440178713252
20
15.593700527316514
10
97.849438143685461
20
25.726850714028
42
1.0570286862167533
10
95.730874155831387
20
27.844410430907978
10
85.598038144531358
20
27.844410430907978
42
0.86725743585340465
10
83.847973144531409
20
26.094497105397991
10
83.847973144527401
20
15.594323756410979
42
0.86719900231609393
10
85.59790473443141
20
13.844310387207983
0
LWPOLYLINE
5
214
100
AcDbEntity
8
0
100
AcDbPolyline
90
8
70
1
43
0.0
10
119.9110415546451
20
13.844310387226244
42
0.86692614098649501
10
121.66144017871325
20
15.593700527316567
10
121.66143814368539
20
25.726850714028
42
1.0570286862167799
10
119.54287415583138
20
27.844410430908013
10
109.4100381445314
20
27.844410430907978
42
0.86725743585341775
10
107.65997314453142
20
26.094497105398009
10
107.6599731445274
20
15.594323756410997
42
0.86719900231609393
10
109.40990473443139
20
13.844310387208001
0
LWPOLYLINE
5
215
100
AcDbEntity
8
0
100
AcDbPolyline
90
8
70
1
43
0.0
10
107.65995788573309
20
34.644303407246667
42
0.8671609090229806
10
109.40983810283939
20
32.894260430897369
10
119.91110818622339
20
32.894260430897347
42
0.86689815649235924
10
121.66143814453136
20
34.643703243568012
10
121.66143814453129
20
45.145117618250616
42
0.86698574759603098
10
119.91090814453176
20
46.894410430908351
10
109.41003814453137
20
46.894410430907996
42
0.86724852291416643
10
107.65995788573133
20
45.144517454568003
0
LWPOLYLINE
5
216
100
AcDbEntity
8
0
100
AcDbPolyline
90
8
70
1
43
0.0
10
128.46003814453132
20
46.894410430908032
42
0.86724852291415289
10
126.7099578857331
20
45.144517454569353
10
126.7099578857331
20
34.644303407246682
42
0.86716090902296583
10
128.45983810283138
20
32.894260430908027
10
138.96110818622338
20
32.894260430897369
42
0.86689815649235147
10
140.7114381445314
20
34.643703243568034
10
140.71143814453137
20
45.145117618250708
42
0.86698574759591562
10
138.96090814453197
20
46.894410430908508
0
LWPOLYLINE
5
217
100
AcDbEntity
8
0
100
AcDbPolyline
90
8
70
1
43
0.0
10
185.61003814453133
20
46.894410430908088
42
0.8672485229141581
10
183.85995788573311
20
45.144517454569389
10
183.85995788573314
20
34.644303407246753
42
0.86716090902298848
10
185.60983810283142
20
32.894260430908076
10
196.11110818622336
20
32.894260430897418
42
0.86689815649236512
10
197.86143814453141
20
34.643703243568069
10
197.86143814453138
20
45.145117618250758
42
0.86698574759590263
10
196.110908144532
20
46.894410430908586
0
LWPOLYLINE
5
218
100
AcDbEntity
8
0
100
AcDbPolyline
90
8
70
1
43
0.0
10
241.00996451032898
20
34.644312241929569
42
0.86716477825874483
10
242.7598381028522
20
32.894260430907067
10
253.26110818621061
20
32.894260430907067
42
0.86689815649797319
10
255.01143814453141
20
34.643703243568126
10
255.01143814453138
20
45.145117618250758
42
0.86698574759599067
10
253.26090814453187
20
46.894410430908515
10
242.76003814453134
20
46.894410430908131
42
0.86725239548298383
10
241.00996415239479
20
45.144508340779446
0
LWPOLYLINE
5
219
100
AcDbEntity
8
0
100
AcDbPolyline
90
8
70
1
43
0.0
10
261.81003814453135
20
46.894410430908152
42
0.86724852291416044
10
260.05995788573318
20
45.144517454569467
10
260.05995788573318
20
34.644303407246824
42
0.86716090902858611
10
261.80983810285136
20
32.894260430908147
10
272.31110818621062
20
32.894260430907082
42
0.86689815649796309
10
274.06143814453139
20
34.64370324356814
10
274.06143814453134
20
45.145117618250772
42
0.86698574759598634
10
272.31090814453188
20
46.894410430908529
0
LWPOLYLINE
5
220
100
AcDbEntity
8
0
100
AcDbPolyline
90
8
70
1
43
0.0
10
310.06647315720943
20
34.643656522753417
42
0.86687770987804225
10
311.81683810285216
20
32.894260430907124
10
322.31810818620937
20
32.894260430908098
42
0.86689815649850543
10
324.0684381445314
20
34.643703243568197
10
324.06843814453134
20
45.145117618250822
42
0.86698574759600378
10
322.31790814453183
20
46.894410430908579
10
311.81703814453135
20
46.894410430908181
42
0.86696529920481913
10
310.06647315157358
20
45.145164334840267
0
LWPOLYLINE
5
221
100
AcDbEntity
8
0
100
AcDbPolyline
90
8
70
1
43
0.0
10
331.84121704102131
20
51.9443043273982
42
0.86729540169507402
10
333.59121704102137
20
53.694304327398193
10
333.59121704102131
20
64.194304327398186
42
0.86729540169505237
10
331.84121704102131
20
65.9443043273982
10
316.57617323195132
20
65.944304327398186
42
0.86729540169506958
10
314.82617323195132
20
64.194304327398186
10
314.82617323195137
20
53.694304327398186
42
0.86729540169507147
10
316.57617323195132
20
51.944304327398186
0
CIRCLE
5
222
100
AcDbEntity
8
0
100
AcDbCircle
10
-68.416192118394932
20
109.78716102972828
30
4.7597586489055355e-06
40
1
210
2.2193676727589409e-23
220
3.5032461608120427e-46
230
-1
0
CIRCLE
5
223
100
AcDbEntity
8
0
100
AcDbCircle
10
-7.3598531186190996
20
108.95114001335816
30
4.7597586319801841e-06
40
1
210
2.2193676727589409e-23
220
3.5032461608120427e-46
230
-1
0
CIRCLE
5
224
100
AcDbEntity
8
0
100
AcDbCircle
10
-263.56662414207159
20
21.479880082051039
30
4.759758719303057e-06
40
1
210
2.2193676727589409e-23
220
3.5032461608120427e-46
230
-1
0
CIRCLE
5
225
100
AcDbEntity
8
0
100
AcDbCircle
10
-331.97235312931866
20
69.044900100391629
30
4.7597587299116601e-06
40
1
210
2.2193676727589409e-23
220
3.5032461608120427e-46
230
-1
0
CIRCLE
5
226
100
AcDbEntity
8
0
100
AcDbCircle
10
-133.70997411703556
20
114.85739404723454
30
4.7597586662573256e-06
40
1
210
2.2193676727589409e-23
220
3.5032461608120427e-46
230
-1
0
CIRCLE
5
227
100
AcDbEntity
8
0
100
AcDbCircle
10
-0.35985413458035964
20
49.419890011481357
30
4.7597586406883291e-06
40
1
210
2.2193676727589409e-23
220
3.5032461608120427e-46
230
-1
0
CIRCLE
5
228
100
AcDbEntity
8
0
100
AcDbCircle
10
-214.7099741170355
20
114.85739406895185
30
4.7597586889099436e-06
40
1
210
2.2193676727589409e-23
220
3.5032461608120427e-46
230
-1
0
CIRCLE
5
229
100
AcDbEntity
8
0
100
AcDbCircle
10
-315.70997411703553
20
114.85739409603144
30
4.7597587171558013e-06
40
1
210
2.2193676727589409e-23
220
3.5032461608120427e-46
230
-1
0
CIRCLE
5
230
100
AcDbEntity
8
0
100
AcDbCircle
10
-149.49060614207158
20
21.479894051465553
30
4.7597586874003318e-06
40
1
210
2.2193676727589409e-23
220
3.5032461608120427e-46
230
-1
0
ENDSEC
0
SECTION
2
OBJECTS
0
DICTIONARY
5
C
100
AcDbDictionary
3
ACAD_GROUP
350
D
3
ACAD_MLINESTYLE
350
17
0
DICTIONARY
5
D
100
AcDbDictionary
0
DICTIONARY
5
1A
330
C
100
AcDbDictionary
0
DICTIONARY
5
17
100
AcDbDictionary
0
ENDSEC
0
EOF
