  0
SECTION
  2
HEADER
  9
$ACADVER
  1
AC1021
  9
$ACADMAINTVER
 70
    50
  9
$DWGCODEPAGE
  3
ANSI_1252
  9
$LASTSAVEDBY
  1
boy9x
  9
$INSBASE
 10
0.0
 20
0.0
 30
0.0
  9
$EXTMIN
 10
-1005.051795199271
 20
-212.385818975842
 30
-0.0000000000176662
  9
$EXTMAX
 10
-654.8382997770228
 20
-76.78630176448859
 30
0.0000000000017106
  9
$LIMMIN
 10
0.0
 20
0.0
  9
$LIMMAX
 10
12.0
 20
9.0
  9
$ORTHOMODE
 70
     0
  9
$REGENMODE
 70
     1
  9
$FILLMODE
 70
     1
  9
$QTEXTMODE
 70
     0
  9
$MIRRTEXT
 70
     0
  9
$LTSCALE
 40
1.0
  9
$ATTMODE
 70
     1
  9
$TEXTSIZE
 40
0.2
  9
$TRACEWID
 40
0.05
  9
$TEXTSTYLE
  7
STANDARD
  9
$CLAYER
  8
0
  9
$CELTYPE
  6
Continuous
  9
$CECOLOR
 62
   256
  9
$CELTSCALE
 40
1.0
  9
$DISPSILH
 70
     0
  9
$DIMSCALE
 40
1.0
  9
$DIMASZ
 40
0.18
  9
$DIMEXO
 40
0.0625
  9
$DIMDLI
 40
0.38
  9
$DIMRND
 40
0.0
  9
$DIMDLE
 40
0.0
  9
$DIMEXE
 40
0.18
  9
$DIMTP
 40
0.0
  9
$DIMTM
 40
0.0
  9
$DIMTXT
 40
0.18
  9
$DIMCEN
 40
0.09
  9
$DIMTSZ
 40
0.0
  9
$DIMTOL
 70
     0
  9
$DIMLIM
 70
     0
  9
$DIMTIH
 70
     1
  9
$DIMTOH
 70
     1
  9
$DIMSE1
 70
     0
  9
$DIMSE2
 70
     0
  9
$DIMTAD
 70
     0
  9
$DIMZIN
 70
     0
  9
$DIMBLK
  1

  9
$DIMASO
 70
     1
  9
$DIMSHO
 70
     1
  9
$DIMPOST
  1

  9
$DIMAPOST
  1

  9
$DIMALT
 70
     0
  9
$DIMALTD
 70
     2
  9
$DIMALTF
 40
25.4
  9
$DIMLFAC
 40
1.0
  9
$DIMTOFL
 70
     0
  9
$DIMTVP
 40
0.0
  9
$DIMTIX
 70
     0
  9
$DIMSOXD
 70
     0
  9
$DIMSAH
 70
     0
  9
$DIMBLK1
  1

  9
$DIMBLK2
  1

  9
$DIMSTYLE
  2
Standard
  9
$DIMCLRD
 70
     0
  9
$DIMCLRE
 70
     0
  9
$DIMCLRT
 70
     0
  9
$DIMTFAC
 40
1.0
  9
$DIMGAP
 40
0.09
  9
$DIMJUST
 70
     0
  9
$DIMSD1
 70
     0
  9
$DIMSD2
 70
     0
  9
$DIMTOLJ
 70
     1
  9
$DIMTZIN
 70
     0
  9
$DIMALTZ
 70
     0
  9
$DIMALTTZ
 70
     0
  9
$DIMUPT
 70
     0
  9
$DIMDEC
 70
     4
  9
$DIMTDEC
 70
     4
  9
$DIMALTU
 70
     2
  9
$DIMALTTD
 70
     2
  9
$DIMTXSTY
  7
STANDARD
  9
$DIMAUNIT
 70
     0
  9
$DIMADEC
 70
     0
  9
$DIMALTRND
 40
0.0
  9
$DIMAZIN
 70
     0
  9
$DIMDSEP
 70
    46
  9
$DIMATFIT
 70
     3
  9
$DIMFRAC
 70
     0
  9
$DIMLDRBLK
  1

  9
$DIMLUNIT
 70
     2
  9
$DIMLWD
 70
    -2
  9
$DIMLWE
 70
    -2
  9
$DIMTMOVE
 70
     0
  9
$DIMFXL
 40
1.0
  9
$DIMFXLON
 70
     0
  9
$DIMJOGANG
 40
0.7853981633974483
  9
$DIMTFILL
 70
     0
  9
$DIMTFILLCLR
 70
     0
  9
$DIMARCSYM
 70
     0
  9
$DIMLTYPE
  6

  9
$DIMLTEX1
  6

  9
$DIMLTEX2
  6

  9
$LUNITS
 70
     2
  9
$LUPREC
 70
     4
  9
$SKETCHINC
 40
0.1
  9
$FILLETRAD
 40
0.0
  9
$AUNITS
 70
     0
  9
$AUPREC
 70
     0
  9
$MENU
  1
.
  9
$ELEVATION
 40
0.0
  9
$PELEVATION
 40
0.0
  9
$THICKNESS
 40
0.0
  9
$LIMCHECK
 70
     0
  9
$CHAMFERA
 40
0.0
  9
$CHAMFERB
 40
0.0
  9
$CHAMFERC
 40
0.0
  9
$CHAMFERD
 40
0.0
  9
$SKPOLY
 70
     0
  9
$TDCREATE
 40
2459135.941435185
  9
$TDUCREATE
 40
2459135.649768519
  9
$TDUPDATE
 40
2459135.943888889
  9
$TDUUPDATE
 40
2459135.652222222
  9
$TDINDWG
 40
0.0024652778
  9
$TDUSRTIMER
 40
0.0024652778
  9
$USRTIMER
 70
     1
  9
$ANGBASE
 50
0.0
  9
$ANGDIR
 70
     0
  9
$PDMODE
 70
     0
  9
$PDSIZE
 40
0.0
  9
$PLINEWID
 40
0.0
  9
$SPLFRAME
 70
     0
  9
$SPLINETYPE
 70
     6
  9
$SPLINESEGS
 70
     8
  9
$HANDSEED
  5
100D9
  9
$SURFTAB1
 70
     6
  9
$SURFTAB2
 70
     6
  9
$SURFTYPE
 70
     6
  9
$SURFU
 70
     6
  9
$SURFV
 70
     6
  9
$UCSBASE
  2

  9
$UCSNAME
  2

  9
$UCSORG
 10
0.0
 20
0.0
 30
0.0
  9
$UCSXDIR
 10
1.0
 20
0.0
 30
0.0
  9
$UCSYDIR
 10
0.0
 20
1.0
 30
0.0
  9
$UCSORTHOREF
  2

  9
$UCSORTHOVIEW
 70
     0
  9
$UCSORGTOP
 10
0.0
 20
0.0
 30
0.0
  9
$UCSORGBOTTOM
 10
0.0
 20
0.0
 30
0.0
  9
$UCSORGLEFT
 10
0.0
 20
0.0
 30
0.0
  9
$UCSORGRIGHT
 10
0.0
 20
0.0
 30
0.0
  9
$UCSORGFRONT
 10
0.0
 20
0.0
 30
0.0
  9
$UCSORGBACK
 10
0.0
 20
0.0
 30
0.0
  9
$PUCSBASE
  2

  9
$PUCSNAME
  2

  9
$PUCSORG
 10
0.0
 20
0.0
 30
0.0
  9
$PUCSXDIR
 10
1.0
 20
0.0
 30
0.0
  9
$PUCSYDIR
 10
0.0
 20
1.0
 30
0.0
  9
$PUCSORTHOREF
  2

  9
$PUCSORTHOVIEW
 70
     0
  9
$PUCSORGTOP
 10
0.0
 20
0.0
 30
0.0
  9
$PUCSORGBOTTOM
 10
0.0
 20
0.0
 30
0.0
  9
$PUCSORGLEFT
 10
0.0
 20
0.0
 30
0.0
  9
$PUCSORGRIGHT
 10
0.0
 20
0.0
 30
0.0
  9
$PUCSORGFRONT
 10
0.0
 20
0.0
 30
0.0
  9
$PUCSORGBACK
 10
0.0
 20
0.0
 30
0.0
  9
$USERI1
 70
     0
  9
$USERI2
 70
     0
  9
$USERI3
 70
     0
  9
$USERI4
 70
     0
  9
$USERI5
 70
     0
  9
$USERR1
 40
0.0
  9
$USERR2
 40
0.0
  9
$USERR3
 40
0.0
  9
$USERR4
 40
0.0
  9
$USERR5
 40
0.0
  9
$WORLDVIEW
 70
     1
  9
$SHADEDGE
 70
     3
  9
$SHADEDIF
 70
    70
  9
$TILEMODE
 70
     1
  9
$MAXACTVP
 70
    64
  9
$PINSBASE
 10
0.0
 20
0.0
 30
0.0
  9
$PLIMCHECK
 70
     0
  9
$PEXTMIN
 10
1.000000000000000E+20
 20
1.000000000000000E+20
 30
1.000000000000000E+20
  9
$PEXTMAX
 10
-1.000000000000000E+20
 20
-1.000000000000000E+20
 30
-1.000000000000000E+20
  9
$PLIMMIN
 10
0.0
 20
0.0
  9
$PLIMMAX
 10
12.0
 20
9.0
  9
$UNITMODE
 70
     0
  9
$VISRETAIN
 70
     1
  9
$PLINEGEN
 70
     0
  9
$PSLTSCALE
 70
     1
  9
$TREEDEPTH
 70
  3020
  9
$CMLSTYLE
  2
Standard
  9
$CMLJUST
 70
     0
  9
$CMLSCALE
 40
1.0
  9
$PROXYGRAPHICS
 70
     1
  9
$MEASUREMENT
 70
     0
  9
$CELWEIGHT
370
    -1
  9
$ENDCAPS
280
     0
  9
$JOINSTYLE
280
     0
  9
$LWDISPLAY
290
     0
  9
$INSUNITS
 70
     4
  9
$HYPERLINKBASE
  1

  9
$STYLESHEET
  1

  9
$XEDIT
290
     1
  9
$CEPSNTYPE
380
     0
  9
$PSTYLEMODE
290
     1
  9
$FINGERPRINTGUID
  2
{EFD14D56-D0B1-7142-8121-15AAD6FC41F5}
  9
$VERSIONGUID
  2
{5E4FB45E-1AEC-624C-B4DD-C354D51BDD73}
  9
$EXTNAMES
290
     1
  9
$PSVPSCALE
 40
0.0
  9
$OLESTARTUP
290
     0
  9
$SORTENTS
280
   127
  9
$INDEXCTL
280
     0
  9
$HIDETEXT
280
     0
  9
$XCLIPFRAME
290
     0
  9
$HALOGAP
280
     0
  9
$OBSCOLOR
 70
   257
  9
$OBSLTYPE
280
     0
  9
$INTERSECTIONDISPLAY
280
     0
  9
$INTERSECTIONCOLOR
 70
   257
  9
$DIMASSOC
280
     1
  9
$PROJECTNAME
  1

  9
$CAMERADISPLAY
290
     0
  9
$LENSLENGTH
 40
50.0
  9
$CAMERAHEIGHT
 40
0.0
  9
$STEPSPERSEC
 40
2.0
  9
$STEPSIZE
 40
6.0
  9
$3DDWFPREC
 40
2.0
  9
$PSOLWIDTH
 40
0.25
  9
$PSOLHEIGHT
 40
4.0
  9
$LOFTANG1
 40
1.570796326794896
  9
$LOFTANG2
 40
1.570796326794896
  9
$LOFTMAG1
 40
0.0
  9
$LOFTMAG2
 40
0.0
  9
$LOFTPARAM
 70
     7
  9
$LOFTNORMALS
280
     1
  9
$LATITUDE
 40
37.795
  9
$LONGITUDE
 40
-122.394
  9
$NORTHDIRECTION
 40
0.0
  9
$TIMEZONE
 70
 -8000
  9
$LIGHTGLYPHDISPLAY
280
     1
  9
$TILEMODELIGHTSYNCH
280
     1
  9
$CMATERIAL
347
10005
  9
$SOLIDHIST
280
     0
  9
$SHOWHIST
280
     1
  9
$DWFFRAME
280
     2
  9
$DGNFRAME
280
     0
  9
$REALWORLDSCALE
290
     1
  9
$INTERFERECOLOR
 62
     1
  9
$INTERFEREOBJVS
345
10027
  9
$INTERFEREVPVS
346
10024
  9
$CSHADOW
280
     0
  9
$SHADOWPLANELOCATION
 40
0.0
  0
ENDSEC
  0
SECTION
  2
CLASSES
  0
CLASS
  1
ACDBDICTIONARYWDFLT
  2
AcDbDictionaryWithDefault
  3
ObjectDBX Classes
 90
        0
 91
        1
280
     0
281
     0
  0
CLASS
  1
MATERIAL
  2
AcDbMaterial
  3
ObjectDBX Classes
 90
     1153
 91
        3
280
     0
281
     0
  0
CLASS
  1
VISUALSTYLE
  2
AcDbVisualStyle
  3
ObjectDBX Classes
 90
     4095
 91
       24
280
     0
281
     0
  0
CLASS
  1
TABLESTYLE
  2
AcDbTableStyle
  3
ObjectDBX Classes
 90
     4095
 91
        1
280
     0
281
     0
  0
CLASS
  1
SCALE
  2
AcDbScale
  3
ObjectDBX Classes
 90
     1153
 91
       17
280
     0
281
     0
  0
CLASS
  1
MLEADERSTYLE
  2
AcDbMLeaderStyle
  3
ACDB_MLEADERSTYLE_CLASS
 90
     4095
 91
        1
280
     0
281
     0
  0
CLASS
  1
ACDBSECTIONVIEWSTYLE
  2
AcDbSectionViewStyle
  3
ObjectDBX Classes
 90
     1025
 91
        1
280
     0
281
     0
  0
CLASS
  1
ACDBDETAILVIEWSTYLE
  2
AcDbDetailViewStyle
  3
ObjectDBX Classes
 90
     1025
 91
        1
280
     0
281
     0
  0
CLASS
  1
SORTENTSTABLE
  2
AcDbSortentsTable
  3
ObjectDBX Classes
 90
        0
 91
        1
280
     0
281
     0
  0
CLASS
  1
DICTIONARYVAR
  2
AcDbDictionaryVar
  3
ObjectDBX Classes
 90
        0
 91
       10
280
     0
281
     0
  0
CLASS
  1
CELLSTYLEMAP
  2
AcDbCellStyleMap
  3
ObjectDBX Classes
 90
     1152
 91
        1
280
     0
281
     0
  0
ENDSEC
  0
SECTION
  2
TABLES
  0
TABLE
  2
VPORT
  5
8
330
0
100
AcDbSymbolTable
 70
     1
  0
VPORT
  5
10059
330
8
100
AcDbSymbolTableRecord
100
AcDbViewportTableRecord
  2
*Active
 70
     0
 10
0.0
 20
0.0
 11
1.0
 21
1.0
 12
-747.9801033798731
 22
-105.6517097101611
 13
0.0
 23
0.0
 14
1.0
 24
1.0
 15
0.0
 25
0.0
 16
0.0
 26
0.0
 36
1.0
 17
0.0
 27
0.0
 37
0.0
 40
437.2307746758194
 41
2.117445838084378
 42
50.0
 43
0.0
 44
0.0
 50
0.0
 51
0.0
 71
     0
 72
  1000
 73
     1
 74
     3
 75
     0
 76
     0
 77
     0
 78
     0
281
     0
 65
     1
110
0.0
120
0.0
130
0.0
111
1.0
121
0.0
131
0.0
112
0.0
122
1.0
132
0.0
 79
     0
146
0.0
348
10023
 60
     3
 61
     5
292
     1
282
     1
141
0.0
142
0.0
 63
   250
421
  3355443
1001
ACAD_NAV_VCDISPLAY
1070
     1
  0
ENDTAB
  0
TABLE
  2
LTYPE
  5
5
330
0
100
AcDbSymbolTable
 70
     2
  0
LTYPE
  5
14
330
5
100
AcDbSymbolTableRecord
100
AcDbLinetypeTableRecord
  2
BYBLOCK
 70
     0
  3

 72
    65
 73
     0
 40
0.0
  0
LTYPE
  5
15
330
5
100
AcDbSymbolTableRecord
100
AcDbLinetypeTableRecord
  2
BYLAYER
 70
     0
  3

 72
    65
 73
     0
 40
0.0
  0
LTYPE
  5
10001
330
5
100
AcDbSymbolTableRecord
100
AcDbLinetypeTableRecord
  2
Continuous
 70
     0
  3
Solid line
 72
    65
 73
     0
 40
0.0
  0
ENDTAB
  0
TABLE
  2
LAYER
  5
2
330
0
100
AcDbSymbolTable
 70
     1
  0
LAYER
  5
50
102
{ACAD_XDICTIONARY
360
10094
102
}
330
2
100
AcDbSymbolTableRecord
100
AcDbLayerTableRecord
  2
0
 70
     0
 62
     7
  6
Continuous
370
    -3
390
10003
347
10015
  0
ENDTAB
  0
TABLE
  2
STYLE
  5
3
330
0
100
AcDbSymbolTable
 70
     1
  0
STYLE
  5
11
330
3
100
AcDbSymbolTableRecord
100
AcDbTextStyleTableRecord
  2
STANDARD
 70
     0
 40
0.0
 41
1.0
 50
0.0
 71
     0
 42
0.2
  3

  4

  0
ENDTAB
  0
TABLE
  2
VIEW
  5
6
330
0
100
AcDbSymbolTable
 70
     0
  0
ENDTAB
  0
TABLE
  2
UCS
  5
7
330
0
100
AcDbSymbolTable
 70
     0
  0
ENDTAB
  0
TABLE
  2
APPID
  5
9
330
0
100
AcDbSymbolTable
 70
     4
  0
APPID
  5
12
330
9
100
AcDbSymbolTableRecord
100
AcDbRegAppTableRecord
  2
ACAD
 70
     0
  0
APPID
  5
10058
330
9
100
AcDbSymbolTableRecord
100
AcDbRegAppTableRecord
  2
ACAD_NAV_VCDISPLAY
 70
     0
  0
APPID
  5
1005B
330
9
100
AcDbSymbolTableRecord
100
AcDbRegAppTableRecord
  2
ACAD_EXEMPT_FROM_CAD_STANDARDS
 70
     0
  0
APPID
  5
100D4
330
9
100
AcDbSymbolTableRecord
100
AcDbRegAppTableRecord
  2
ACAD_MLEADERVER
 70
     0
  0
ENDTAB
  0
TABLE
  2
DIMSTYLE
  5
A
330
0
100
AcDbSymbolTable
 70
     2
100
AcDbDimStyleTable
 71
     1
340
10053
  0
DIMSTYLE
105
10053
330
A
100
AcDbSymbolTableRecord
100
AcDbDimStyleTableRecord
  2
Standard
 70
     0
340
11
  0
ENDTAB
  0
TABLE
  2
BLOCK_RECORD
  5
1
330
0
100
AcDbSymbolTable
 70
     1
  0
BLOCK_RECORD
  5
1F
102
{ACAD_XDICTIONARY
360
10064
102
}
330
1
100
AcDbSymbolTableRecord
100
AcDbBlockTableRecord
  2
*MODEL_SPACE
340
10055
 70
     0
280
     1
281
     0
  0
BLOCK_RECORD
  5
1B
330
1
100
AcDbSymbolTableRecord
100
AcDbBlockTableRecord
  2
*PAPER_SPACE
340
10056
 70
     0
280
     1
281
     0
  0
ENDTAB
  0
ENDSEC
  0
SECTION
  2
BLOCKS
  0
BLOCK
  5
20
330
1F
100
AcDbEntity
  8
0
100
AcDbBlockBegin
  2
*MODEL_SPACE
 70
     0
 10
0.0
 20
0.0
 30
0.0
  3
*MODEL_SPACE
  1

  0
ENDBLK
  5
21
330
1F
100
AcDbEntity
  8
0
100
AcDbBlockEnd
  0
BLOCK
  5
1C
330
1B
100
AcDbEntity
 67
     1
  8
0
100
AcDbBlockBegin
  2
*PAPER_SPACE
 70
     0
 10
0.0
 20
0.0
 30
0.0
  3
*PAPER_SPACE
  1

  0
ENDBLK
  5
1D
330
1B
100
AcDbEntity
 67
     1
  8
0
100
AcDbBlockEnd
  0
ENDSEC
  0
SECTION
  2
ENTITIES
  0
SPLINE
  5
100
330
1F
100
AcDbEntity
  8
0
100
AcDbSpline
210
0.0000000000000096
220
-0.0000000000001016
230
1.0
 70
    12
 71
     3
 72
    48
 73
    44
 74
     0
 42
0.000000001
 43
0.0000000001
 40
0.0
 40
0.0
 40
0.0
 40
0.0
 40
1.376180797719986
 40
1.376180797719986
 40
1.376180797719986
 40
2.803818792601546
 40
2.803818792601546
 40
6.151851448361727
 40
6.151851448361727
 40
6.151851448361727
 40
9.192166017570555
 40
9.192166017570555
 40
9.192166017570555
 40
11.40441056562258
 40
11.40441056562258
 40
13.96788097528159
 40
13.96788097528159
 40
13.96788097528159
 40
17.00819554449038
 40
17.00819554449038
 40
17.00819554449038
 40
19.28553852372398
 40
19.28553852372398
 40
21.78391050200728
 40
21.78391050200728
 40
21.78391050200728
 40
24.82422507121609
 40
24.82422507121609
 40
24.82422507121609
 40
27.10156805055079
 40
27.10156805055079
 40
29.59994002883029
 40
29.59994002883029
 40
29.59994002883029
 40
32.64025459803909
 40
32.64025459803909
 40
32.64025459803909
 40
34.91759757737368
 40
34.91759757737368
 40
37.41596955565329
 40
37.41596955565329
 40
37.41596955565329
 40
40.45628412486208
 40
40.45628412486208
 40
40.45628412486208
 40
40.45628412486208
 10
-805.1432653891701
 20
-204.8987997001489
 30
0.0000000000001243
 41
0.9999999999999998
 10
-804.8005035307413
 20
-204.9663674474809
 30
0.0000000000001243
 41
0.8483067601225361
 10
-804.5786434507629
 20
-205.2362362989347
 30
0.0000000000001243
 41
0.8483067601225361
 10
-804.578649172229
 20
-205.5855944132534
 30
0.0000000000001243
 41
0.9999999999999998
 10
-804.5786507877361
 20
-205.6842387933014
 30
-0.0000000000000533
 41
1.0
 10
-804.600514143137
 20
-205.7924105954643
 30
-0.0000000000001243
 41
1.0
 10
-804.765928041483
 20
-206.1302482387877
 30
-0.0000000000004796
 41
1.0
 10
-805.0473140548488
 20
-206.2855833666103
 30
-0.0000000000005151
 41
1.0
 10
-805.278650434889
 20
-206.2855829492956
 30
-0.0000000000003908
 41
1.0
 10
-809.7786503094601
 20
-206.2855748315914
 30
0.0000000000000533
 41
1.0
 10
-814.278650184031
 20
-206.2855667138873
 30
0.0000000000000888
 41
1.0
 10
-818.7786500586039
 20
-206.2855585961841
 30
0.0000000000000533
 41
1.0
 10
-819.3222769967269
 20
-206.2855576155164
 30
-0.0000000000002842
 41
1.0
 10
-819.9006274656749
 20
-206.5039885017334
 30
-0.000000000000302
 41
1.0
 10
-820.7852459238818
 20
-207.2937494703354
 30
0.0000000000002842
 41
1.0
 10
-821.0786530713118
 20
-207.9556188593665
 30
-0.000000000000302
 41
1.0
 10
-821.078654207662
 20
-208.5855544471284
 30
-0.0000000000000355
 41
1.0
 10
-821.07865510962
 20
-209.0855544471265
 30
-0.0000000000001421
 41
1.0
 10
-821.0786560115769
 20
-209.5855544471517
 30
-0.0000000000002309
 41
1.0
 10
-821.0786569135308
 20
-210.0855544472032
 30
-0.0000000000004263
 41
1.0
 10
-821.0786578461981
 20
-210.6025795431875
 30
-0.000000000000302
 41
1.0
 10
-820.8775781661021
 20
-211.2041165929659
 30
-0.0000000000001421
 41
1.0
 10
-820.0147766209029
 20
-212.1357472748949
 30
-0.0000000000002487
 41
1.0
 10
-819.3458663644179
 20
-212.3855575729729
 30
-0.0000000000003375
 41
1.0
 10
-818.7786610626019
 20
-212.3855585961737
 30
-0.0000000000005151
 41
1.0
 10
-798.4453277293021
 20
-212.3855952761688
 30
-0.0000000000002309
 41
1.0
 10
-778.1119943960021
 20
-212.385631956163
 30
-0.0000000000003375
 41
1.0
 10
-757.7786610627022
 20
-212.3856686361581
 30
-0.0000000000006573
 41
1.0
 10
-757.261635966697
 20
-212.3856695688372
 30
-0.0000000000005507
 41
1.0
 10
-756.6600989168819
 20
-212.1845898887373
 30
-0.0000000000005507
 41
1.0
 10
-755.7284682349319
 20
-211.3217883435093
 30
-0.0000000000004441
 41
1.0
 10
-755.4786579368581
 20
-210.652878087023
 30
-0.0000000000005151
 41
1.0
 10
-755.4786569136571
 20
-210.08567278521
 30
-0.0000000000005329
 41
1.0
 10
-755.4786560116899
 20
-209.5856727852118
 30
-0.0000000000005151
 41
1.0
 10
-755.478655109723
 20
-209.0856727852128
 30
-0.0000000000005507
 41
1.0
 10
-755.4786542077562
 20
-208.5856727852128
 30
-0.0000000000006928
 41
1.0
 10
-755.478653275076
 20
-208.0686476892083
 30
-0.000000000000675
 41
1.0
 10
-755.6797329551759
 20
-207.4671106393936
 30
-0.0000000000006573
 41
1.0
 10
-756.542534500404
 20
-206.5354799574434
 30
-0.0000000000004441
 41
1.0
 10
-757.211444756891
 20
-206.2856696593694
 30
-0.0000000000002487
 41
1.0
 10
-757.778650058704
 20
-206.2856686361686
 30
-0.0000000000000711
 41
1.0
 10
-762.2786501841169
 20
-206.2856605184645
 30
-0.0000000000002132
 41
1.0
 10
-766.7786503095299
 20
-206.2856524007604
 30
-0.000000000000373
 41
1.0
 10
-771.278650434943
 20
-206.2856442830563
 30
-0.0000000000006217
 41
1.0
  0
SPLINE
  5
108
330
1F
100
AcDbEntity
  8
0
100
AcDbSpline
210
0.0000000000000021
220
0.0000000000000496
230
1.0
 70
     8
 71
     3
 72
    50
 73
    46
 74
     0
 42
0.000000001
 43
0.0000000001
 40
0.0
 40
0.0
 40
0.0
 40
0.0
 40
0.4150150825170281
 40
0.4150150825170281
 40
1.38830571871618
 40
1.38830571871618
 40
1.38830571871618
 40
2.272140889088719
 40
2.272140889088719
 40
2.272140889088719
 40
2.915251821371839
 40
2.915251821371839
 40
3.660465928230269
 40
3.660465928230269
 40
3.660465928230269
 40
4.544301098602789
 40
4.544301098602789
 40
4.544301098602789
 40
5.206336481531029
 40
5.206336481531029
 40
5.932626137688069
 40
5.932626137688069
 40
5.932626137688069
 40
6.816461308060629
 40
6.816461308060629
 40
6.816461308060629
 40
7.45957224039107
 40
7.45957224039107
 40
8.20478634717406
 40
8.20478634717406
 40
8.20478634717406
 40
9.08862151754662
 40
9.08862151754662
 40
9.08862151754662
 40
9.750656900474787
 40
9.750656900474787
 40
10.4769465566318
 40
10.4769465566318
 40
10.4769465566318
 40
11.3607817270043
 40
11.3607817270043
 40
11.3607817270043
 40
11.7758141133084
 40
11.7758141133084
 40
12.749104161641
 40
12.749104161641
 40
12.749104161641
 40
12.749104161641
 10
-721.2389825057989
 20
-205.5857498535459
 30
0.0
 10
-721.2389848400509
 20
-205.6843927472188
 30
-0.0000000000000533
 10
-721.2608482881138
 20
-205.792562543363
 30
-0.0000000000000355
 10
-721.426261163505
 20
-206.1303982619909
 30
0.0000000000000355
 10
-721.7076471041953
 20
-206.2857337062966
 30
-0.0000000000000178
 10
-721.9389837683569
 20
-206.285733288981
 30
0.0000000000001066
 10
-726.4389836429289
 20
-206.2857251712769
 30
-0.0000000000001599
 10
-730.9389835174999
 20
-206.2857170535727
 30
-0.0000000000001421
 10
-735.438983392072
 20
-206.2857089358705
 30
0.0000000000005684
 10
-735.9826103301969
 20
-206.2857079552028
 30
0.0000000000002132
 10
-736.5609607991472
 20
-206.5041388414207
 30
0.0000000000002487
 10
-737.445579257351
 20
-207.2938998100258
 30
0.0000000000009059
 10
-737.7389864047811
 20
-207.955769199054
 30
0.0000000000002487
 10
-737.738987541131
 20
-208.5857047868147
 30
0.000000000000373
 10
-737.7389884430889
 20
-209.0857047868128
 30
0.000000000000373
 10
-737.7389893450461
 20
-209.5857047868371
 30
0.0000000000002665
 10
-737.7389902469998
 20
-210.0857047868886
 30
0.0000000000000711
 10
-737.7389911796671
 20
-210.6027298828738
 30
0.0000000000002842
 10
-737.5379114995711
 20
-211.2042669326521
 30
0.0000000000002665
 10
-736.6751099543721
 20
-212.1358976145823
 30
0.0000000000002842
 10
-736.0061996978869
 20
-212.3857079126592
 30
0.0000000000000533
 10
-735.438994396071
 20
-212.3857089358601
 30
-0.0000000000001243
 10
-715.1056610627709
 20
-212.3857456158542
 30
0.0000000000001599
 10
-694.7723277294709
 20
-212.3857822958493
 30
0.0000000000002665
 10
-674.4389943961699
 20
-212.3858189758446
 30
-0.0000000000002487
 10
-673.895367458005
 20
-212.3858199565122
 30
0.0000000000001954
 10
-673.3170169890139
 20
-212.167389070258
 30
0.0000000000001776
 10
-672.432398530879
 20
-211.3776281016298
 30
-0.000000000000302
 10
-672.138991383488
 20
-210.71575871265
 30
0.0000000000004086
 10
-672.1389902471259
 20
-210.0858231248973
 30
0.0
 10
-672.1389893451589
 20
-209.5858231248993
 30
-0.0000000000001243
 10
-672.138988443198
 20
-209.085823124875
 30
0.0
 10
-672.1389875412431
 20
-208.5858231248244
 30
0.0000000000001066
 10
-672.1389866085758
 20
-208.0687980288403
 30
0.0000000000000178
 10
-672.340066288672
 20
-207.4672609790618
 30
0.0000000000000178
 10
-673.2028678338711
 20
-206.5356302971318
 30
0.0000000000000178
 10
-673.871778090356
 20
-206.2858199990548
 30
0.0000000000002309
 10
-674.4389833921729
 20
-206.285818975854
 30
0.0000000000004263
 10
-678.9389835175861
 20
-206.2858108581498
 30
0.0000000000001599
 10
-683.4389836429989
 20
-206.2858027404457
 30
0.0
 10
-687.9389837684129
 20
-206.2857946227417
 30
-0.0000000000001421
 10
-688.0376305200752
 20
-206.2857944447892
 30
-0.0000000000001954
 10
-688.14580558746
 20
-206.2639315560424
 30
-0.0000000000000711
 10
-688.483646789249
 20
-206.0985170210213
 30
0.0000000000000178
 10
-688.638982241274
 20
-205.8171313494357
 30
0.0000000000002309
 10
-688.6389825056571
 20
-205.5857954227417
 30
0.0000000000004086
  0
SPLINE
  5
120
330
1F
100
AcDbEntity
  8
0
100
AcDbSpline
210
0.0000000000000144
220
0.0000000000000934
230
1.0
 70
     8
 71
     3
 72
   122
 73
   118
 74
     0
 42
0.000000001
 43
0.0000000001
 40
0.0
 40
0.0
 40
0.0
 40
0.0
 40
0.148070297060204
 40
0.148070297060204
 40
0.148070297060204
 40
0.211208073452394
 40
0.211208073452394
 40
0.211208073452394
 40
0.2113425345592433
 40
0.2113425345592433
 40
0.2113425345592433
 40
0.2889410572842336
 40
0.2889410572842336
 40
0.2889410572842336
 40
0.3329748157104414
 40
0.3329748157104414
 40
0.3329748157104414
 40
0.3567498810264712
 40
0.3567498810264712
 40
0.3567498810264712
 40
0.366539580009224
 40
0.366539580009224
 40
0.366539580009224
 40
0.4310918966739293
 40
0.4310918966739293
 40
0.4310918966739293
 40
0.45904135307214
 40
0.45904135307214
 40
0.45904135307214
 40
0.5348031066198696
 40
0.5348031066198696
 40
0.5348031066198696
 40
0.5643414364590025
 40
0.5643414364590025
 40
0.5643414364590025
 40
0.6848157459647542
 40
0.6848157459647542
 40
0.6848157459647542
 40
0.7465037208341834
 40
0.7465037208341834
 40
0.7465037208341834
 40
0.8018344261367058
 40
0.8018344261367058
 40
0.8018344261367058
 40
0.9025523126271547
 40
0.9025523126271547
 40
0.9025523126271547
 40
0.9026867737340044
 40
0.9026867737340044
 40
0.9026867737340044
 40
0.9737320856010731
 40
0.9737320856010731
 40
0.9737320856010731
 40
1.009254741534607
 40
1.009254741534607
 40
1.009254741534607
 40
1.027016069501375
 40
1.027016069501375
 40
1.027016069501375
 40
1.033689162063314
 40
1.033689162063314
 40
1.033689162063314
 40
1.03989417986407
 40
1.03989417986407
 40
1.03989417986407
 40
1.044777397468142
 40
1.044777397468142
 40
1.044777397468142
 40
1.069261803306451
 40
1.069261803306451
 40
1.069261803306451
 40
1.150385592247229
 40
1.150385592247229
 40
1.150385592247229
 40
1.226147345794702
 40
1.226147345794702
 40
1.226147345794702
 40
1.255685675633799
 40
1.255685675633799
 40
1.255685675633799
 40
1.376159985138478
 40
1.376159985138478
 40
1.376159985138478
 40
1.437847960001762
 40
1.437847960001762
 40
1.437847960001762
 40
1.4931786653114
 40
1.4931786653114
 40
1.4931786653114
 40
1.593896551797189
 40
1.593896551797189
 40
1.593896551797189
 40
1.594031012904039
 40
1.594031012904039
 40
1.594031012904039
 40
1.668652889090804
 40
1.668652889090804
 40
1.668652889090804
 40
1.706525184346498
 40
1.706525184346498
 40
1.706525184346498
 40
1.725704725341743
 40
1.725704725341743
 40
1.725704725341743
 40
1.737335267159848
 40
1.737335267159848
 40
1.737335267159848
 40
1.743274765277569
 40
1.743274765277569
 40
1.743274765277569
 40
1.793823464789257
 40
1.793823464789257
 40
1.793823464789257
 40
1.87642786635364
 40
1.87642786635364
 40
1.87642786635364
 40
1.939568272883169
 40
1.939568272883169
 40
1.939568272883169
 40
1.939568272883169
 10
-688.6388141980569
 20
-83.58656998936178
 30
-0.0000000000000888
 10
-688.638808920122
 20
-83.35523332526024
 30
-0.0000000000001776
 10
-688.4834665484549
 20
-83.07385120884077
 30
-0.0000000000003553
 10
-688.2466193609136
 20
-82.95789209010131
 30
-0.0000000000001954
 10
-688.145626757649
 20
-82.90844665063794
 30
-0.0000000000003375
 10
-688.0374564232838
 20
-82.88658586560172
 30
-0.0000000000001066
 10
-687.9388135295831
 20
-82.88658595982763
 30
0.0
 10
-687.9343135294472
 20
-82.88658596412611
 30
-0.0000000000000178
 10
-687.9298135293331
 20
-82.88658596842461
 30
-0.0000000000001776
 10
-687.9253135292076
 20
-82.88658597272309
 30
-0.0000000000001776
 10
-685.3283293887601
 20
-82.88658845341885
 30
-0.0000000000006217
 10
-682.7313452483127
 20
-82.88659093411466
 30
-0.0000000000006928
 10
-680.4651777605852
 20
-82.8865930988071
 30
-0.000000000000675
 10
-679.1792270980761
 20
-82.88659432717516
 30
-0.000000000000675
 10
-677.9998015396135
 20
-82.88659545378809
 30
-0.0000000000006573
 10
-676.9873494098976
 20
-82.88659642090438
 30
-0.0000000000005862
 10
-676.4406980139308
 20
-82.88659694307771
 30
-0.0000000000005329
 10
-676.0074816429056
 20
-82.88659735689542
 30
-0.0000000000004974
 10
-675.3420201890425
 20
-82.88659799255869
 30
-0.0000000000004441
 10
-675.0680075951191
 20
-82.8865982543015
 30
-0.0000000000004086
 10
-674.7652695237896
 20
-82.88659854348351
 30
-0.0000000000004086
 10
-674.4388131533289
 20
-82.88659885532174
 30
-0.0000000000003553
 10
-674.0814239133904
 20
-82.88659919670761
 30
-0.0000000000000888
 10
-673.5347906505437
 20
-82.74450313532069
 30
0.0000000000002842
 10
-673.1404641644679
 20
-82.4796871601802
 30
0.0000000000002309
 10
-672.9697311606241
 20
-82.36502880346803
 30
0.0000000000001954
 10
-672.8275934555807
 20
-82.23541768982062
 30
0.0000000000001243
 10
-672.7230844260044
 20
-82.11835682353315
 30
-0.0000000000000711
 10
-672.4397949326608
 20
-81.80104344271484
 30
-0.0000000000008527
 10
-672.2536051943388
 20
-81.38204132893594
 30
-0.0000000000007638
 10
-672.1803336689608
 20
-81.00633686602906
 30
-0.0000000000007105
 10
-672.1517662403693
 20
-80.85985553702464
 30
-0.0000000000006928
 10
-672.1388110918192
 20
-80.72847196645886
 30
-0.0000000000006928
 10
-672.138810956304
 20
-80.58660105224866
 30
-0.0000000000007105
 10
-672.1388105864077
 20
-80.19935631389651
 30
-0.0000000000002842
 10
-672.1388100307838
 20
-79.61767846820333
 30
-0.0000000000005151
 10
-672.1388095234869
 20
-79.08660105233294
 30
-0.0000000000001599
 10
-672.1388091648955
 20
-78.71119990250098
 30
-0.0000000000007816
 10
-672.2376949144655
 20
-78.37866690561465
 30
-0.0000000000007638
 10
-672.3680614106447
 20
-78.10172644642982
 30
-0.0000000000006928
 10
-672.4849929551911
 20
-77.85332615502888
 30
-0.0000000000006217
 10
-672.6319327416712
 20
-77.62514445339826
 30
-0.0000000000004263
 10
-672.8759903328234
 20
-77.39911665473645
 30
-0.000000000000373
 10
-673.3202457354687
 20
-76.98768068903112
 30
-0.0000000000001243
 10
-673.9217822304705
 20
-76.78659934919801
 30
-0.0000000000010125
 10
-674.4388073264756
 20
-76.78659885532437
 30
-0.0000000000010836
 10
-674.4591406598067
 20
-76.78659883590147
 30
-0.0000000000011013
 10
-674.4794739931427
 20
-76.78659881647869
 30
-0.0000000000010303
 10
-674.499807326476
 20
-76.78659879705581
 30
-0.0000000000010303
 10
-685.2433453042039
 20
-76.78658853459484
 30
-0.000000000000604
 10
-695.9868832819323
 20
-76.78657827213381
 30
-0.0000000000004619
 10
-706.1799092506848
 20
-76.78656853553381
 30
-0.0000000000004441
 10
-711.2764222350611
 20
-76.7865636672338
 30
-0.0000000000004263
 10
-716.2353072171936
 20
-76.78655893039906
 30
-0.0000000000004796
 10
-720.9877501959604
 20
-76.78655439076222
 30
-0.0000000000005151
 10
-723.3639716853433
 20
-76.78655212094381
 30
-0.0000000000005507
 10
-725.6885826738847
 20
-76.78654990042486
 30
-0.0000000000005862
 10
-727.9529814114452
 20
-76.78654773742195
 30
-0.0000000000005862
 10
-728.8037366253091
 20
-76.78654692476209
 30
-0.000000000000604
 10
-729.6459924386803
 20
-76.78654612022099
 30
-0.000000000000604
 10
-730.4792926655408
 20
-76.7865453242345
 30
-0.0000000000006217
 10
-731.254142211392
 20
-76.78654458408137
 30
-0.0000000000006217
 10
-731.9681578103651
 20
-76.78654390203816
 30
-0.0000000000006217
 10
-732.9145854664044
 20
-76.78654299798989
 30
-0.0000000000006217
 10
-733.6594039889859
 20
-76.78654228652304
 30
-0.0000000000006395
 10
-734.5132574122509
 20
-76.78654147090369
 30
-0.0000000000006573
 10
-735.438807326447
 20
-76.78654058679827
 30
-0.0000000000006573
 10
-735.6093217466605
 20
-76.7865404239192
 30
-0.0000000000007105
 10
-735.8426459828433
 20
-76.82109012235773
 30
-0.0000000000006217
 10
-735.9778976114634
 20
-76.85518157753309
 30
-0.0000000000005329
 10
-736.4260246620651
 20
-76.96813624886932
 30
-0.0000000000002665
 10
-736.8511967566905
 20
-77.21501139461307
 30
0.0000000000002842
 10
-737.1545360537758
 20
-77.55478261859145
 30
0.0000000000001599
 10
-737.4378255471188
 20
-77.87209599940955
 30
0.0000000000007461
 10
-737.6240152854384
 20
-78.29109811318701
 30
0.0000000000001954
 10
-737.6972868108156
 20
-78.66680257609214
 30
0.0000000000000178
 10
-737.7258542394067
 20
-78.81328390509621
 30
-0.0000000000000533
 10
-737.7388093879567
 20
-78.94466747566148
 30
0.0
 10
-737.738809523472
 20
-79.08653838987136
 30
0.0000000000000355
 10
-737.7388098933689
 20
-79.47378312821857
 30
0.0000000000006217
 10
-737.7388104489869
 20
-80.05546097390404
 30
0.0000000000000178
 10
-737.738810956269
 20
-80.58653838978122
 30
-0.0000000000005151
 10
-737.7388113148497
 20
-80.96193953960314
 30
0.000000000000373
 10
-737.6399255652808
 20
-81.29447253647851
 30
0.0000000000001954
 10
-737.5095590691188
 20
-81.57141299564001
 30
-0.0000000000001599
 10
-737.3926275245615
 20
-81.81981328707673
 30
-0.0000000000004619
 10
-737.2456877380734
 20
-82.04799498872885
 30
-0.0000000000007816
 10
-737.0016301468845
 20
-82.2740227874182
 30
-0.0000000000005862
 10
-736.5573747442505
 20
-82.68545875310184
 30
0.0000000000003197
 10
-735.955838249283
 20
-82.88654009292214
 30
-0.0000000000002665
 10
-735.4388131533008
 20
-82.8865405867957
 30
-0.0000000000001954
 10
-735.4343131534259
 20
-82.88654059109418
 30
-0.0000000000001954
 10
-735.4298131535512
 20
-82.88654059539267
 30
-0.0000000000001776
 10
-735.4253131536766
 20
-82.88654059969116
 30
-0.0000000000001599
 10
-732.9279483665676
 20
-82.8865429852283
 30
-0.0000000000006395
 10
-730.4305835794594
 20
-82.88654537076546
 30
-0.0000000000007816
 10
-728.1739668060335
 20
-82.8865475263349
 30
-0.0000000000007105
 10
-727.0286825932884
 20
-82.88654862033533
 30
-0.000000000000675
 10
-725.9454100805169
 20
-82.88654965510081
 30
-0.0000000000006573
 10
-724.9556216124355
 20
-82.8865506005683
 30
-0.0000000000005507
 10
-724.4543663182419
 20
-82.88655107937829
 30
-0.0000000000005151
 10
-723.9770866889715
 20
-82.88655153528615
 30
-0.0000000000003908
 10
-723.5278704230572
 20
-82.88655196438734
 30
-0.0000000000003197
 10
-723.2554640830211
 20
-82.88655222459581
 30
-0.0000000000002665
 10
-722.965902223392
 20
-82.88655250119161
 30
-0.0000000000002487
 10
-722.5793743249156
 20
-82.88655287041144
 30
-0.0000000000002309
 10
-722.3819818249485
 20
-82.8865530589651
 30
-0.0000000000002132
 10
-722.167251314813
 20
-82.88655326408029
 30
-0.0000000000001776
 10
-721.9388135295689
 20
-82.88655348228902
 30
-0.0000000000001776
 10
-721.8480549356473
 20
-82.88655356898361
 30
0.0000000000000178
 10
-721.7009494679395
 20
-82.92930186439811
 30
-0.0000000000000888
 10
-721.6212456008284
 20
-82.97126634279264
 30
-0.0000000000000711
 10
-721.490997141251
 20
-83.03984279793837
 30
0.0
 10
-721.3748208047085
 20
-83.14660469425071
 30
0.0000000000002132
 10
-721.310127210756
 20
-83.27873426295765
 30
0.0000000000001776
 10
-721.2606773056109
 20
-83.37973026952312
 30
-0.0000000000006928
 10
-721.2388143963529
 20
-83.48790532815497
 30
-0.0000000000005507
 10
-721.2388141982261
 20
-83.58655207637147
 30
-0.0000000000006395
  0
SPLINE
  5
128
330
1F
100
AcDbEntity
  8
0
100
AcDbSpline
210
0.0000000000000113
220
-0.0000000000002283
230
1.0
 70
     8
 71
     3
 72
   116
 73
   112
 74
     0
 42
0.000000001
 43
0.0000000001
 40
0.0
 40
0.0
 40
0.0
 40
0.0
 40
0.247432509648952
 40
0.247432509648952
 40
0.247432509648952
 40
0.352940456632542
 40
0.352940456632542
 40
0.352940456632542
 40
0.3531651475902859
 40
0.3531651475902859
 40
0.3531651475902859
 40
0.4828360003682809
 40
0.4828360003682809
 40
0.4828360003682809
 40
0.5564185223758922
 40
0.5564185223758922
 40
0.5564185223758922
 40
0.5961477966717804
 40
0.5961477966717804
 40
0.5961477966717804
 40
0.6125068531462759
 40
0.6125068531462759
 40
0.6125068531462759
 40
0.7203768699560867
 40
0.7203768699560867
 40
0.7203768699560867
 40
0.767081751939722
 40
0.767081751939722
 40
0.767081751939722
 40
0.8935599354136563
 40
0.8935599354136563
 40
0.8935599354136563
 40
0.9430424349652891
 40
0.9430424349652891
 40
0.9430424349652891
 40
1.141518424603532
 40
1.141518424603532
 40
1.141518424603532
 40
1.230056020642906
 40
1.230056020642906
 40
1.230056020642906
 40
1.344716440772359
 40
1.344716440772359
 40
1.344716440772359
 40
1.50820983429682
 40
1.50820983429682
 40
1.50820983429682
 40
1.627042302944954
 40
1.627042302944954
 40
1.627042302944954
 40
1.686458537269021
 40
1.686458537269021
 40
1.686458537269021
 40
1.716166654431055
 40
1.716166654431055
 40
1.716166654431055
 40
1.727324760385655
 40
1.727324760385655
 40
1.727324760385655
 40
1.737726178598714
 40
1.737726178598714
 40
1.737726178598714
 40
1.745874771593089
 40
1.745874771593089
 40
1.745874771593089
 40
1.786789387919779
 40
1.786789387919779
 40
1.786789387919779
 40
1.922351129601229
 40
1.922351129601229
 40
1.922351129601229
 40
2.048952652999513
 40
2.048952652999513
 40
2.048952652999513
 40
2.09831261869691
 40
2.09831261869691
 40
2.09831261869691
 40
2.299630967328976
 40
2.299630967328976
 40
2.299630967328976
 40
2.40271453162585
 40
2.40271453162585
 40
2.40271453162585
 40
2.49517479362995
 40
2.49517479362995
 40
2.49517479362995
 40
2.663479211961079
 40
2.663479211961079
 40
2.663479211961079
 40
2.663703902918824
 40
2.663703902918824
 40
2.663703902918824
 40
2.794617077784519
 40
2.794617077784519
 40
2.794617077784519
 40
2.869532995822658
 40
2.869532995822658
 40
2.869532995822658
 40
2.904627232626312
 40
2.904627232626312
 40
2.904627232626312
 40
2.925530252650215
 40
2.925530252650215
 40
2.925530252650215
 40
3.064643379337836
 40
3.064643379337836
 40
3.064643379337836
 40
3.201977185342002
 40
3.201977185342002
 40
3.201977185342002
 40
3.241116595088799
 40
3.241116595088799
 40
3.241116595088799
 40
3.241116595088799
 10
-771.978480864783
 20
-83.58649548251776
 30
-0.0000000000000355
 10
-771.978477272505
 20
-83.35515910250625
 30
0.0000000000007638
 10
-771.8231372676371
 20
-83.07377578149811
 30
0.0000000000001243
 10
-771.5862907295075
 20
-82.95781478473308
 30
0.0000000000007283
 10
-771.4852967573587
 20
-82.90836773868329
 30
0.000000000000977
 10
-771.3771245762695
 20
-82.88650625815281
 30
0.0000000000008882
 10
-771.2784801962117
 20
-82.88650635238031
 30
0.0000000000009948
 10
-771.2739801960809
 20
-82.88650635667877
 30
0.0000000000010658
 10
-771.2694801959612
 20
-82.88650636097729
 30
0.0000000000007461
 10
-771.2649801958358
 20
-82.88650636527577
 30
0.0000000000007638
 10
-768.6679960553839
 20
-82.88650884597139
 30
0.0000000000002842
 10
-766.0710119149308
 20
-82.88651132666705
 30
0.0000000000001421
 10
-763.8048444272036
 20
-82.88651349135948
 30
0.0000000000001599
 10
-762.5188937646896
 20
-82.88651471972753
 30
0.0000000000001599
 10
-761.3394682062244
 20
-82.88651584634051
 30
0.0000000000001954
 10
-760.3270160765098
 20
-82.88651681345681
 30
0.0000000000002487
 10
-759.7803646805612
 20
-82.88651733563012
 30
0.0000000000002665
 10
-759.3471483095481
 20
-82.88651774944781
 30
0.000000000000302
 10
-758.6816868557101
 20
-82.88651838511105
 30
0.0000000000003197
 10
-758.4076742617759
 20
-82.88651864685386
 30
0.0000000000003375
 10
-758.1049361904332
 20
-82.88651893603587
 30
0.0000000000003553
 10
-757.7784798199569
 20
-82.88651924787414
 30
0.000000000000373
 10
-757.4210905800172
 20
-82.88651958926003
 30
0.0000000000005151
 10
-756.8744573171698
 20
-82.74442352787295
 30
0.0000000000005507
 10
-756.4801308310908
 20
-82.47960755272783
 30
0.0000000000005862
 10
-756.3093978272404
 20
-82.36494919601003
 30
0.000000000000604
 10
-756.1672601221913
 20
-82.23533808235513
 30
0.0000000000006395
 10
-756.0627510926124
 20
-82.11827721606105
 30
0.0000000000006573
 10
-755.7797375904592
 20
-81.80127297376476
 30
0.0000000000008527
 10
-755.593616655683
 20
-81.3827729102916
 30
0.0000000000008171
 10
-755.5202147822183
 20
-81.00735545008747
 30
0.0000000000009059
 10
-755.4914975120055
 20
-80.86047957160799
 30
0.0000000000009237
 10
-755.4784777588284
 20
-80.72877156097964
 30
0.0000000000010125
 10
-755.478477622948
 20
-80.58652144488494
 30
0.0000000000010303
 10
-755.4784772581964
 20
-80.20467159486281
 30
0.0000000000013678
 10
-755.4784767118
 20
-79.63266036992163
 30
0.0000000000011013
 10
-755.478476190116
 20
-79.08652144488574
 30
0.0000000000007461
 10
-755.4784758423844
 20
-78.72248972056507
 30
0.0000000000008882
 10
-755.5711816235644
 20
-78.41262942537844
 30
0.0000000000009415
 10
-755.6735690601497
 20
-78.17632664706593
 30
0.0000000000009592
 10
-755.8061656859901
 20
-77.87030325077876
 30
0.0000000000010125
 10
-755.9593339584475
 20
-77.62736223939184
 30
0.0000000000010125
 10
-756.246718221932
 20
-77.37079271753644
 30
0.000000000000604
 10
-756.6564971886371
 20
-77.00495224917141
 30
0.0000000000011902
 10
-757.2348470549399
 20
-76.78651976716075
 30
-0.0000000000003908
 10
-757.7784739931035
 20
-76.78651924787653
 30
-0.0000000000002132
 10
-768.5321786374829
 20
-76.78650897570427
 30
-0.000000000000302
 10
-779.2869232157419
 20
-76.78649870253844
 30
0.0000000000003375
 10
-789.4906372960932
 20
-76.78648895572901
 30
0.0000000000003908
 10
-794.5924943362687
 20
-76.7864840823243
 30
0.0000000000004086
 10
-799.5565932594578
 20
-76.78647934050913
 30
0.0000000000004086
 10
-804.3139245224558
 20
-76.78647479620291
 30
0.0000000000004086
 10
-806.692590153955
 20
-76.78647252404978
 30
0.0000000000004263
 10
-809.0195638704061
 20
-76.78647030127392
 30
0.0000000000004086
 10
-811.2862194789087
 20
-76.78646813611523
 30
0.0000000000004086
 10
-812.1375552705485
 20
-76.78646732290077
 30
0.0000000000004086
 10
-812.9803820642921
 20
-76.78646651781426
 30
0.0000000000003908
 10
-813.8142428085494
 20
-76.78646572129237
 30
0.0000000000004086
 10
-814.591555227679
 20
-76.78646497878665
 30
0.0000000000003908
 10
-815.307612229971
 20
-76.78646429479345
 30
0.0000000000004086
 10
-816.257401194054
 20
-76.78646338753437
 30
0.0000000000004441
 10
-817.0014770056718
 20
-76.78646267677698
 30
0.0000000000004441
 10
-817.8542282051406
 20
-76.78646186221051
 30
0.0000000000004619
 10
-818.7784739930771
 20
-76.78646097935086
 30
0.0000000000004796
 10
-818.94898841329
 20
-76.78646081647181
 30
0.0000000000005151
 10
-819.1823126494728
 20
-76.8210105149104
 30
0.0000000000007638
 10
-819.3175642780925
 20
-76.85510197008574
 30
0.0000000000009415
 10
-819.7656913286937
 20
-76.96805664142189
 30
0.0000000000015277
 10
-820.1908634233188
 20
-77.21493178716523
 30
0.000000000001954
 10
-820.494202720404
 20
-77.55470301114314
 30
0.0000000000014566
 10
-820.7774922137465
 20
-77.87201639196116
 30
0.000000000000302
 10
-820.9636819520667
 20
-78.29101850573859
 30
0.0000000000003553
 10
-821.0369534774443
 20
-78.66672296864381
 30
0.0000000000005684
 10
-821.0655209060353
 20
-78.81320429764819
 30
0.0000000000006573
 10
-821.0784760545857
 20
-78.94458786821373
 30
0.0000000000007994
 10
-821.078476190101
 20
-79.08645878242393
 30
0.0000000000007994
 10
-821.0784765599981
 20
-79.47370352077101
 30
0.0000000000012612
 10
-821.0784771156161
 20
-80.0553813664567
 30
0.000000000000977
 10
-821.078477622898
 20
-80.5864587823339
 30
0.0000000000007994
 10
-821.0784779814787
 20
-80.96185993215604
 30
0.0000000000011191
 10
-820.9795922319095
 20
-81.29439292903155
 30
0.0000000000012967
 10
-820.8492257357477
 20
-81.57133338819345
 30
0.0000000000011369
 10
-820.7322941911908
 20
-81.8197336796298
 30
0.0000000000009948
 10
-820.5853544047023
 20
-82.04791538128191
 30
0.0000000000007105
 10
-820.3412968135136
 20
-82.27394317997108
 30
0.0000000000006928
 10
-819.8970414108782
 20
-82.68537914565506
 30
0.0000000000002665
 10
-819.295504915912
 20
-82.8864604854745
 30
0.0000000000006217
 10
-818.7784798199299
 20
-82.88646097934815
 30
0.0000000000016165
 10
-818.7739798200563
 20
-82.88646098364665
 30
0.0000000000016342
 10
-818.7694798201819
 20
-82.88646098794513
 30
0.0000000000015987
 10
-818.764979820308
 20
-82.88646099224356
 30
0.0000000000015987
 10
-816.1431152099394
 20
-82.88646349667645
 30
0.0000000000011013
 10
-813.521250599571
 20
-82.8864659918273
 30
0.0000000000007638
 10
-811.272083552212
 20
-82.88646812631233
 30
0.0000000000006395
 10
-809.9849830419167
 20
-82.88646934778531
 30
0.0000000000005151
 10
-808.8199326075564
 20
-82.8864704513357
 30
0.0000000000004974
 10
-807.8467762010074
 20
-82.88647137211427
 30
0.0000000000004796
 10
-807.3909027061242
 20
-82.88647180345149
 30
0.0000000000004619
 10
-807.036394793679
 20
-82.88647213874355
 30
0.0000000000004441
 10
-806.4621850545966
 20
-82.88647268139005
 30
0.0000000000004796
 10
-806.1201711296003
 20
-82.88647300460411
 30
0.0000000000004796
 10
-805.7210668411753
 20
-82.88647338162419
 30
0.0000000000004974
 10
-805.2784801984309
 20
-82.88647379944926
 30
0.0000000000005507
 10
-805.1296480685602
 20
-82.88647393995447
 30
0.0000000000006573
 10
-804.8830521582733
 20
-82.99195461038953
 30
0.0000000000000355
 10
-804.7835078300595
 20
-83.0915002477363
 30
0.0000000000002487
 10
-804.6852367092316
 20
-83.18977266095343
 30
0.0000000000008882
 10
-804.6157527201904
 20
-83.32670216788264
 30
0.0000000000008882
 10
-804.5897664176225
 20
-83.46677333995446
 30
0.0000000000007105
 10
-804.5823604585685
 20
-83.50669288458037
 30
0.0000000000006573
 10
-804.5784874687322
 20
-83.5468676014806
 30
0.0000000000006217
 10
-804.578487966647
 20
-83.58647538520578
 30
0.0000000000005684
  0
SPLINE
  5
136
330
1F
100
AcDbEntity
  8
0
100
AcDbSpline
210
0.0000000000000062
220
-0.0000000000003636
230
1.0
 70
     8
 71
     3
 72
   119
 73
   115
 74
     0
 42
0.000000001
 43
0.0000000001
 40
0.0
 40
0.0
 40
0.0
 40
0.0
 40
0.456444956682891
 40
0.456444956682891
 40
0.456444956682891
 40
0.6510812845879011
 40
0.6510812845879011
 40
0.6510812845879011
 40
0.6514957777298304
 40
0.6514957777298304
 40
0.6514957777298304
 40
0.8907029079330946
 40
0.8907029079330946
 40
0.8907029079330946
 40
1.02644246347265
 40
1.02644246347265
 40
1.02644246347265
 40
1.099732069316188
 40
1.099732069316188
 40
1.099732069316188
 40
1.129910038136358
 40
1.129910038136358
 40
1.129910038136358
 40
1.328900610058852
 40
1.328900610058852
 40
1.328900610058852
 40
1.41505829735865
 40
1.41505829735865
 40
1.41505829735865
 40
1.64860335735202
 40
1.64860335735202
 40
1.64860335735202
 40
1.739658945313792
 40
1.739658945313792
 40
1.739658945313792
 40
2.111036038949954
 40
2.111036038949954
 40
2.111036038949954
 40
2.301196919831778
 40
2.301196919831778
 40
2.301196919831778
 40
2.471760723919639
 40
2.471760723919639
 40
2.471760723919639
 40
2.78223617810945
 40
2.78223617810945
 40
2.78223617810945
 40
2.782650671251379
 40
2.782650671251379
 40
2.782650671251379
 40
3.001656711177324
 40
3.001656711177324
 40
3.001656711177324
 40
3.111159731140296
 40
3.111159731140296
 40
3.111159731140296
 40
3.165911241121783
 40
3.165911241121783
 40
3.165911241121783
 40
3.186481881712156
 40
3.186481881712156
 40
3.186481881712156
 40
3.205609623438015
 40
3.205609623438015
 40
3.205609623438015
 40
3.22066275110327
 40
3.22066275110327
 40
3.22066275110327
 40
3.296138987630105
 40
3.296138987630105
 40
3.296138987630105
 40
3.54621319088017
 40
3.54621319088017
 40
3.54621319088017
 40
3.779758250873068
 40
3.779758250873068
 40
3.779758250873068
 40
3.870813838835601
 40
3.870813838835601
 40
3.870813838835601
 40
4.242190932468472
 40
4.242190932468472
 40
4.242190932468472
 40
4.432351813332055
 40
4.432351813332055
 40
4.432351813332055
 40
4.60291561744107
 40
4.60291561744107
 40
4.60291561744107
 40
4.9133910716165
 40
4.9133910716165
 40
4.9133910716165
 40
4.913805564758428
 40
4.913805564758428
 40
4.913805564758428
 40
5.155304296169891
 40
5.155304296169891
 40
5.155304296169891
 40
5.293503324744031
 40
5.293503324744031
 40
5.293503324744031
 40
5.358243243664825
 40
5.358243243664825
 40
5.358243243664825
 40
5.396803027581353
 40
5.396803027581353
 40
5.396803027581353
 40
5.653427335008497
 40
5.653427335008497
 40
5.653427335008497
 40
5.906769285887537
 40
5.906769285887537
 40
5.906769285887537
 40
5.97897046775551
 40
5.97897046775551
 40
5.97897046775551
 40
5.97897046775551
 10
-855.318147531473
 20
-83.58642097567305
 30
0.0
 10
-855.3181456248468
 20
-83.35508487976479
 30
0.0000000000002309
 10
-855.162807986788
 20
-83.07370035418882
 30
0.0000000000006573
 10
-854.9259620980876
 20
-82.95773747940108
 30
0.0000000000005329
 10
-854.8249667570699
 20
-82.90828882673993
 30
-0.0000000000004086
 10
-854.7167927292525
 20
-82.88642665070435
 30
-0.0000000000013145
 10
-854.6181468628414
 20
-82.88642674493308
 30
-0.0000000000000888
 10
-854.6136468627127
 20
-82.88642674923158
 30
-0.0000000000000888
 10
-854.6091468625913
 20
-82.88642675353008
 30
0.0000000000005862
 10
-854.6046468624659
 20
-82.88642675782858
 30
0.0000000000005862
 10
-852.0076627220147
 20
-82.88642923852419
 30
0.0000000000001421
 10
-849.4106785815645
 20
-82.88643171921973
 30
-0.0000000000000178
 10
-847.1445110938374
 20
-82.88643388391209
 30
-0.0000000000000355
 10
-845.8585604313261
 20
-82.88643511228007
 30
-0.0000000000000355
 10
-844.6791348728625
 20
-82.88643623889294
 30
0.0000000000000178
 10
-843.6666827431475
 20
-82.88643720600916
 30
0.0000000000000533
 10
-843.1200313471901
 20
-82.88643772818245
 30
0.0000000000000888
 10
-842.6868149761718
 20
-82.88643814200012
 30
0.0000000000001243
 10
-842.0213535223229
 20
-82.88643877766334
 30
0.0000000000001421
 10
-841.7473409283932
 20
-82.88643903940611
 30
0.0000000000001599
 10
-841.444602857056
 20
-82.88643932858807
 30
0.0000000000001776
 10
-841.1181464865858
 20
-82.88643964042629
 30
0.0000000000001954
 10
-840.7607572466471
 20
-82.88643998181226
 30
0.0000000000003197
 10
-840.2141239837995
 20
-82.74434392042493
 30
0.0000000000006928
 10
-839.8197974977215
 20
-82.47952794528218
 30
0.0000000000007283
 10
-839.6490644938747
 20
-82.36486958856755
 30
0.0000000000007283
 10
-839.5069267888278
 20
-82.23525847491686
 30
0.000000000000675
 10
-839.4024177592505
 20
-82.11819760862656
 30
0.0000000000006395
 10
-839.1191282659104
 20
-81.80088422780759
 30
0.0000000000009415
 10
-838.9329385275921
 20
-81.38188211403043
 30
0.0000000000006217
 10
-838.8596670022161
 20
-81.00617765112609
 30
0.0000000000005862
 10
-838.8310995736258
 20
-80.85969632212437
 30
0.0000000000005507
 10
-838.8181444250763
 20
-80.72831275156101
 30
0.0000000000005329
 10
-838.8181442895611
 20
-80.5864418373534
 30
0.0000000000006217
 10
-838.8181439196642
 20
-80.1991970990015
 30
0.0000000000008527
 10
-838.8181433640406
 20
-79.61751925330858
 30
0.0000000000012612
 10
-838.818142856744
 20
-79.0864418374381
 30
0.000000000000977
 10
-838.8181424981523
 20
-78.7110406876066
 30
0.0000000000016698
 10
-838.9170282477223
 20
-78.37850769072078
 30
0.0000000000017408
 10
-839.047394743901
 20
-78.10156723153681
 30
0.0000000000012612
 10
-839.1643262884475
 20
-77.85316694013506
 30
0.0000000000008349
 10
-839.3112660749274
 20
-77.62498523850402
 30
0.0000000000001954
 10
-839.5553236660802
 20
-77.39895743984146
 30
0.0000000000002842
 10
-839.9995790687258
 20
-76.9875214741359
 30
0.0000000000004441
 10
-840.6011155637269
 20
-76.7864401343029
 30
-0.000000000000302
 10
-841.118140659732
 20
-76.78643964042922
 30
-0.0000000000003553
 10
-841.1384739930637
 20
-76.78643962100635
 30
-0.0000000000003553
 10
-841.1588073263988
 20
-76.78643960158355
 30
-0.0000000000003375
 10
-841.179140659732
 20
-76.78643958216072
 30
-0.0000000000003553
 10
-851.9226786374611
 20
-76.78642931969962
 30
0.0000000000000711
 10
-862.66621661519
 20
-76.78641905723857
 30
0.0000000000004796
 10
-872.859242583943
 20
-76.78640932063861
 30
0.0000000000006573
 10
-877.9557555683195
 20
-76.78640445233864
 30
0.0000000000007461
 10
-882.914640550452
 20
-76.78639971550389
 30
0.0000000000007638
 10
-887.6670835292184
 20
-76.78639517586706
 30
0.0000000000007105
 10
-890.0433050186018
 20
-76.78639290604865
 30
0.000000000000675
 10
-892.3679160071435
 20
-76.78639068552965
 30
0.0000000000006395
 10
-894.632314744704
 20
-76.78638852252678
 30
0.0000000000005684
 10
-895.4830699585674
 20
-76.7863877098669
 30
0.0000000000005507
 10
-896.3253257719369
 20
-76.78638690532586
 30
0.0000000000004796
 10
-897.1586259987965
 20
-76.78638610933936
 30
0.0000000000004441
 10
-897.9334755446551
 20
-76.78638536918622
 30
0.0000000000004086
 10
-898.6474911436362
 20
-76.78638468714305
 30
0.0000000000004441
 10
-899.5939187996873
 20
-76.78638378309475
 30
0.0000000000004086
 10
-900.3387373222633
 20
-76.78638307162791
 30
0.0000000000003908
 10
-901.1925907455195
 20
-76.78638225600855
 30
0.0000000000003375
 10
-902.1181406597051
 20
-76.78638137190318
 30
0.0000000000003197
 10
-902.2886550799189
 20
-76.78638120902407
 30
0.000000000000302
 10
-902.5219793161017
 20
-76.82093090746263
 30
0.0000000000004796
 10
-902.6572309447217
 20
-76.85502236263804
 30
0.0000000000006217
 10
-903.1053579953262
 20
-76.9679770339749
 30
0.0000000000010125
 10
-903.5305300899544
 20
-77.21485217972062
 30
0.000000000001279
 10
-903.8338693870398
 20
-77.55462340370238
 30
0.0000000000014033
 10
-904.1171588803788
 20
-77.87193678452052
 30
0.0000000000009415
 10
-904.3033486186971
 20
-78.29093889829701
 30
0.0000000000007461
 10
-904.3766201440735
 20
-78.66664336120061
 30
0.0000000000007461
 10
-904.4051875726642
 20
-78.81312469020357
 30
0.0000000000007461
 10
-904.4181427212144
 20
-78.94450826076779
 30
0.0000000000008704
 10
-904.4181428567299
 20
-79.08637917497649
 30
0.0000000000008171
 10
-904.4181432266272
 20
-79.47362391332305
 30
0.0000000000021316
 10
-904.4181437822439
 20
-80.05530175900885
 30
0.0000000000017764
 10
-904.418144289526
 20
-80.58637917488635
 30
0.0000000000011546
 10
-904.4181446481074
 20
-80.96178032470858
 30
0.0000000000012612
 10
-904.3192588985382
 20
-81.29431332158404
 30
0.0000000000012434
 10
-904.1888924023762
 20
-81.5712537807459
 30
0.0000000000010303
 10
-904.0719608578189
 20
-81.81965407218243
 30
0.0000000000008527
 10
-903.9250210713303
 20
-82.04783577383457
 30
0.0000000000006217
 10
-903.680963480142
 20
-82.2738635725239
 30
0.0000000000005507
 10
-903.2367080775065
 20
-82.68529953820786
 30
0.0000000000009237
 10
-902.6351715825391
 20
-82.88638087802741
 30
0.0000000000005507
 10
-902.1181464865575
 20
-82.88638137190107
 30
0.000000000001581
 10
-902.1136464866833
 20
-82.88638137619951
 30
0.0000000000015277
 10
-902.1091464868096
 20
-82.88638138049797
 30
0.0000000000015099
 10
-902.1046464869355
 20
-82.88638138479642
 30
0.0000000000015099
 10
-899.4827834186494
 20
-82.88638388922766
 30
0.0000000000010481
 10
-896.8609203503637
 20
-82.88638638437815
 30
0.0000000000007638
 10
-894.6117531113284
 20
-82.88638851886506
 30
0.0000000000006395
 10
-893.3246543107726
 20
-82.88638974033739
 30
0.0000000000005507
 10
-892.1596046733297
 20
-82.88639084388819
 30
0.0000000000005507
 10
-891.1864475297782
 20
-82.88639176466856
 30
0.0000000000005151
 10
-890.730567953628
 20
-82.88639219601202
 30
0.0000000000004974
 10
-890.3760561289836
 20
-82.88639253130822
 30
0.0000000000005329
 10
-889.801837625575
 20
-82.88639307396373
 30
0.0000000000004263
 10
-889.4598269808072
 20
-82.88639339717512
 30
0.0000000000003908
 10
-889.0607275465125
 20
-82.88639377419116
 30
0.000000000000302
 10
-888.6181468650601
 20
-82.88639419201118
 30
0.0000000000002132
 10
-888.4693145159749
 20
-82.88639433251686
 30
0.000000000000302
 10
-888.2227184808433
 20
-82.99187456289672
 30
0.000000000000302
 10
-888.1231737233225
 20
-83.09141990406994
 30
0.0000000000004796
 10
-888.0249021841022
 20
-83.18969201947936
 30
0.0000000000001599
 10
-887.9554174958109
 20
-83.32662112348053
 30
0.000000000000675
 10
-887.9294302758321
 20
-83.46669218522679
 30
0.0000000000007816
 10
-887.9220240488358
 20
-83.50661173336515
 30
0.0000000000007994
 10
-887.9181507795246
 20
-83.54678647799051
 30
0.0000000000007638
 10
-887.9181509887779
 20
-83.58639432070033
 30
0.0000000000007105
  0
SPLINE
  5
139
330
1F
100
AcDbEntity
  8
0
100
AcDbSpline
210
0.0000000000000005
220
0.0000000000004564
230
1.0
 70
    12
 71
     3
 72
    54
 73
    50
 74
     0
 42
0.000000001
 43
0.0000000001
 40
0.0
 40
0.0
 40
0.0
 40
0.0
 40
0.0758546375207845
 40
0.0758546375207845
 40
0.253741458634237
 40
0.253741458634237
 40
0.253741458634237
 40
0.415278733344176
 40
0.415278733344176
 40
0.415278733344176
 40
0.4911333708962311
 40
0.4911333708962311
 40
0.619649172737161
 40
0.619649172737161
 40
0.619649172737161
 40
1.61964917273716
 40
1.61964917273716
 40
1.61964917273716
 40
1.669470417760296
 40
1.669470417760296
 40
1.669470417760296
 40
1.748614322444987
 40
1.748614322444987
 40
1.748614322444987
 40
1.748715091404356
 40
1.748715091404356
 40
1.748715091404356
 40
1.804976720504126
 40
1.804976720504126
 40
1.804976720504126
 40
1.83310753505401
 40
1.83310753505401
 40
1.83310753505401
 40
1.848036091629794
 40
1.848036091629794
 40
1.848036091629794
 40
1.856195466402674
 40
1.856195466402674
 40
1.856195466402674
 40
1.861238349603895
 40
1.861238349603895
 40
1.861238349603895
 40
1.901705401850141
 40
1.901705401850141
 40
1.901705401850141
 40
1.928527204762309
 40
1.928527204762309
 40
1.928527204762309
 40
2.007671129104566
 40
2.007671129104566
 40
2.007671129104566
 40
2.007671129104566
 10
-887.918147343913
 20
-83.58639432071973
 30
0.0000000000000178
 41
1.0
 10
-887.918147865075
 20
-83.68504079065003
 30
0.0000000000003553
 41
1.0
 10
-887.9400109983489
 20
-83.79321543192942
 30
0.0000000000002842
 41
1.0
 10
-888.1054260482828
 20
-84.13105592185253
 30
0.0000000000004086
 41
1.0
 10
-888.3868120319981
 20
-84.28639084350407
 30
0.0000000000003375
 41
1.0
 10
-888.61814801255
 20
-84.28639062253017
 30
0.000000000000373
 41
1.0
 10
-893.7847583397839
 20
-84.28638568734443
 30
0.0000000000004796
 41
1.0
 10
-898.9513686670179
 20
-84.28638075215891
 30
-0.0000000000004086
 41
1.0
 10
-904.1179789942493
 20
-84.28637581697314
 30
-0.000000000000302
 41
1.0
 10
-904.2166254642172
 20
-84.28637572274691
 30
0.0000000000004086
 41
1.0
 10
-904.3248002001632
 20
-84.26451305762865
 30
-0.0000000000001954
 41
1.0
 10
-904.596906918733
 20
-84.13128434596655
 30
0.0000000000005507
 41
1.0
 10
-904.7360494969678
 20
-83.96330061869747
 30
0.0000000000008349
 41
1.0
 10
-904.7887982647512
 20
-83.7863773400962
 30
0.0000000000004974
 41
1.0
 10
-910.4548632989361
 20
-83.78637192799029
 30
0.0000000000003257
 41
1.0
 10
-916.120928333121
 20
-83.78636651588434
 30
0.0000000000001362
 41
1.0
 10
-921.7869933673059
 20
-83.78636110377838
 30
-0.0000000000000533
 41
1.0
 10
-921.8202425246353
 20
-83.89788267689228
 30
0.0000000000001421
 41
1.0
 10
-921.8833459663072
 20
-84.00184330840426
 30
-0.0000000000004086
 41
1.0
 10
-921.9628390043125
 20
-84.08133642973465
 30
-0.0000000000004796
 41
1.0
 10
-922.0891182536572
 20
-84.20761581144798
 30
-0.0000000000007105
 41
1.0
 10
-922.2792287585383
 20
-84.28636211290941
 30
-0.000000000000675
 41
1.0
 10
-922.4578146792072
 20
-84.28636194232266
 30
0.0000000000000533
 41
1.0
 10
-922.4629813458754
 20
-84.28636193738737
 30
0.0000000000000711
 41
1.0
 10
-922.4681480125392
 20
-84.28636193245223
 30
0.0000000000000355
 41
1.0
 10
-922.4733146792051
 20
-84.28636192751701
 30
0.0000000000000533
 41
1.0
 10
-925.3579835838497
 20
-84.28635917208744
 30
-0.0000000000001776
 41
1.0
 10
-928.2426524884947
 20
-84.28635642502882
 30
-0.0000000000001421
 41
1.0
 10
-930.8327361019895
 20
-84.28635396462585
 30
-0.0000000000001243
 41
1.0
 10
-932.127777908737
 20
-84.28635273442434
 30
-0.0000000000001243
 41
1.0
 10
-933.3491733926972
 20
-84.28635157578765
 30
-0.0000000000001243
 41
1.0
 10
-934.460099392476
 20
-84.28635052302213
 30
-0.0000000000001954
 41
1.0
 10
-935.0496493896795
 20
-84.28634996433698
 30
-0.0000000000002309
 41
1.0
 10
-935.6080884315392
 20
-84.28634943546333
 30
-0.0000000000002487
 41
1.0
 10
-936.1299131621052
 20
-84.2863489415067
 30
-0.0000000000003197
 41
1.0
 10
-936.4151224869873
 20
-84.28634867152899
 30
-0.000000000000373
 41
1.0
 10
-936.7318491755048
 20
-84.28634837177943
 30
-0.0000000000004263
 41
1.0
 10
-937.137302584318
 20
-84.28634798823658
 30
-0.0000000000004796
 41
1.0
 10
-937.3878921504422
 20
-84.28634775118878
 30
-0.0000000000004974
 41
1.0
 10
-937.6631887190351
 20
-84.28634749082894
 30
-0.0000000000005151
 41
1.0
 10
-937.9578146772479
 20
-84.28634721227673
 30
-0.0000000000005507
 41
1.0
 10
-938.0618641039284
 20
-84.28634711390387
 30
-0.0000000000004796
 41
1.0
 10
-938.2230779130512
 20
-84.23837783875521
 30
-0.000000000000675
 41
1.0
 10
-938.3053420156889
 20
-84.19211612222914
 30
-0.0000000000005862
 41
1.0
 10
-938.3598671521939
 20
-84.16145358136773
 30
-0.0000000000005684
 41
1.0
 10
-938.4099942006004
 20
-84.12411681979524
 30
-0.0000000000004441
 41
1.0
 10
-938.452790056808
 20
-84.08132077121676
 30
-0.0000000000004263
 41
1.0
 10
-938.5790691279968
 20
-83.95504113239104
 30
-0.0000000000008704
 41
1.0
 10
-938.6578148964039
 20
-83.76493035955625
 30
0.0000000000001243
 41
1.0
 10
-938.6578141972401
 20
-83.58634439697997
 30
0.0000000000001421
 41
1.0
  0
SPLINE
  5
140
330
1F
100
AcDbEntity
  8
0
100
AcDbSpline
210
0.0000000000000068
220
-0.0000000000003472
230
1.0
 70
     8
 71
     3
 72
   122
 73
   118
 74
     0
 42
0.000000001
 43
0.0000000001
 40
0.0
 40
0.0
 40
0.0
 40
0.0
 40
0.193246289072587
 40
0.193246289072587
 40
0.193246289072587
 40
0.275650775069516
 40
0.275650775069516
 40
0.275650775069516
 40
0.2758262601338571
 40
0.2758262601338571
 40
0.2758262601338571
 40
0.3771000193068593
 40
0.3771000193068593
 40
0.3771000193068593
 40
0.4345684360982899
 40
0.4345684360982899
 40
0.4345684360982899
 40
0.465597251525603
 40
0.465597251525603
 40
0.465597251525603
 40
0.4783737784798617
 40
0.4783737784798617
 40
0.4783737784798617
 40
0.5626209463696452
 40
0.5626209463696452
 40
0.5626209463696452
 40
0.5990977556826661
 40
0.5990977556826661
 40
0.5990977556826661
 40
0.6979743491254553
 40
0.6979743491254553
 40
0.6979743491254553
 40
0.7365247956619387
 40
0.7365247956619387
 40
0.7365247956619387
 40
0.8937557039210235
 40
0.8937557039210235
 40
0.8937557039210235
 40
0.9742646220191209
 40
0.9742646220191209
 40
0.9742646220191209
 40
1.04647667357734
 40
1.04647667357734
 40
1.04647667357734
 40
1.17792349270014
 40
1.17792349270014
 40
1.17792349270014
 40
1.178098977764481
 40
1.178098977764481
 40
1.178098977764481
 40
1.270820147597567
 40
1.270820147597567
 40
1.270820147597567
 40
1.31718073251411
 40
1.31718073251411
 40
1.31718073251411
 40
1.340361024972382
 40
1.340361024972382
 40
1.340361024972382
 40
1.349070071811476
 40
1.349070071811476
 40
1.349070071811476
 40
1.357168234719108
 40
1.357168234719108
 40
1.357168234719108
 40
1.363541317430653
 40
1.363541317430653
 40
1.363541317430653
 40
1.395495892508721
 40
1.395495892508721
 40
1.395495892508721
 40
1.50137047331159
 40
1.50137047331159
 40
1.50137047331159
 40
1.600247066754457
 40
1.600247066754457
 40
1.600247066754457
 40
1.638797513301707
 40
1.638797513301707
 40
1.638797513301707
 40
1.796028421556569
 40
1.796028421556569
 40
1.796028421556569
 40
1.876537339649019
 40
1.876537339649019
 40
1.876537339649019
 40
1.94874939121411
 40
1.94874939121411
 40
1.94874939121411
 40
2.080196210330739
 40
2.080196210330739
 40
2.080196210330739
 40
2.080371695395081
 40
2.080371695395081
 40
2.080371695395081
 40
2.177760636669792
 40
2.177760636669792
 40
2.177760636669792
 40
2.22718773494804
 40
2.22718773494804
 40
2.22718773494804
 40
2.252218941712388
 40
2.252218941712388
 40
2.252218941712388
 40
2.267397954186332
 40
2.267397954186332
 40
2.267397954186332
 40
2.275149577944502
 40
2.275149577944502
 40
2.275149577944502
 40
2.350633489280536
 40
2.350633489280536
 40
2.350633489280536
 40
2.44892759626088
 40
2.44892759626088
 40
2.44892759626088
 40
2.531332115547599
 40
2.531332115547599
 40
2.531332115547599
 40
2.531332115547599
 10
-938.6578141981193
 20
-83.58634439695284
 30
-0.0000000000001599
 10
-938.657813292429
 20
-83.35500846975016
 30
0.0000000000001421
 10
-938.5024770597807
 20
-83.07362322891426
 30
0.0000000000002309
 10
-938.2656315567164
 20
-82.95765923896182
 30
-0.0000000000002309
 10
-938.1646354028749
 20
-82.90820963228609
 30
-0.0000000000003553
 10
-938.0564602784732
 20
-82.88634704325534
 30
-0.0000000000006573
 10
-937.9578135294696
 20
-82.88634713748486
 30
-0.0000000000008349
 10
-937.9533135293575
 20
-82.88634714178336
 30
-0.0000000000008349
 10
-937.9488135292179
 20
-82.88634714608184
 30
-0.0000000000006573
 10
-937.9443135290925
 20
-82.88634715038034
 30
-0.0000000000006573
 10
-935.3473293886397
 20
-82.88634963107618
 30
-0.0000000000005329
 10
-932.7503452481865
 20
-82.88635211177197
 30
-0.0000000000004086
 10
-930.4841777604595
 20
-82.88635427646445
 30
-0.0000000000002842
 10
-929.1982270979449
 20
-82.88635550483252
 30
-0.0000000000002309
 10
-928.0188015394797
 20
-82.88635663144543
 30
-0.0000000000001599
 10
-927.0063494097652
 20
-82.88635759856173
 30
-0.0000000000001066
 10
-926.4596980138184
 20
-82.88635812073501
 30
-0.0000000000000711
 10
-926.0264816428058
 20
-82.88635853455271
 30
-0.0000000000000533
 10
-925.3610201889697
 20
-82.88635917021595
 30
0.0
 10
-925.0870075950354
 20
-82.88635943195876
 30
0.0000000000000178
 10
-924.784269523692
 20
-82.88635972114072
 30
0.0000000000000178
 10
-924.4578131532151
 20
-82.88636003297893
 30
0.0000000000000355
 10
-924.1004239132749
 20
-82.88636037436491
 30
0.0000000000001599
 10
-923.5537906504262
 20
-82.74426431297767
 30
0.0000000000001243
 10
-923.1594641643463
 20
-82.47944833783181
 30
0.0000000000000178
 10
-922.9887311604947
 20
-82.36478998111323
 30
-0.0000000000000355
 10
-922.8465934554447
 20
-82.23517886745737
 30
-0.0000000000000711
 10
-922.7420844258647
 20
-82.11811800116237
 30
-0.0000000000000888
 10
-922.4587949325274
 20
-81.80080462034048
 30
0.0000000000001599
 10
-922.272605194216
 20
-81.38180250656382
 30
0.0000000000002487
 10
-922.1993336688486
 20
-81.00609804365745
 30
0.0000000000003908
 10
-922.1707662402696
 20
-80.85961671469496
 30
0.0000000000004263
 10
-922.1578110917231
 20
-80.72823314416032
 30
0.0000000000005507
 10
-922.1578109562051
 20
-80.58636222998996
 30
0.0000000000005862
 10
-922.1578105863004
 20
-80.19911749158154
 30
0.0000000000015099
 10
-922.1578100306688
 20
-79.61743964586644
 30
0.0000000000009592
 10
-922.157809523372
 20
-79.08636222999037
 30
0.0000000000007461
 10
-922.1578091647806
 20
-78.71096108017093
 30
0.0000000000014211
 10
-922.2566949143459
 20
-78.37842808328956
 30
0.0000000000014566
 10
-922.3870614105182
 20
-78.10148762411154
 30
0.0000000000010125
 10
-922.5039929550659
 20
-77.85308733270094
 30
0.0000000000006217
 10
-922.6509327415479
 20
-77.62490563106362
 30
0.0000000000001066
 10
-922.8949903327084
 20
-77.39887783239409
 30
0.0000000000001421
 10
-923.3392457353536
 20
-76.98744186668851
 30
0.0000000000003375
 10
-923.9407822303565
 20
-76.78636052685523
 30
-0.0000000000004619
 10
-924.4578073263609
 20
-76.78636003298159
 30
-0.0000000000005151
 10
-924.4781406596985
 20
-76.78636001355875
 30
-0.0000000000004974
 10
-924.4984739930279
 20
-76.78635999413592
 30
-0.0000000000004974
 10
-924.5188073263612
 20
-76.78635997471309
 30
-0.0000000000004974
 10
-935.2623453040884
 20
-76.78634971225209
 30
-0.0000000000000888
 10
-946.0058832818159
 20
-76.78633944979106
 30
0.000000000000302
 10
-956.1989092505687
 20
-76.78632971319117
 30
0.0000000000004619
 10
-961.2954222349456
 20
-76.78632484489118
 30
0.0000000000005507
 10
-966.2543072170787
 20
-76.78632010805644
 30
0.0000000000006217
 10
-971.0067501958464
 20
-76.78631556841962
 30
0.0000000000005684
 10
-973.3829716852302
 20
-76.78631329860121
 30
0.0000000000005507
 10
-975.7075826737724
 20
-76.78631107808222
 30
0.0000000000004796
 10
-977.9719814113331
 20
-76.78630891507933
 30
0.0000000000004086
 10
-978.8227366251987
 20
-76.78630810241945
 30
0.000000000000373
 10
-979.6649924385707
 20
-76.78630729787842
 30
0.0000000000003197
 10
-980.4982926654325
 20
-76.78630650189191
 30
0.0000000000002842
 10
-981.2731422112863
 20
-76.7863057617388
 30
0.0000000000002487
 10
-981.9871578102628
 20
-76.78630507969562
 30
0.0000000000002309
 10
-982.9335854663064
 20
-76.78630417564733
 30
0.0000000000002309
 10
-983.6784039888847
 20
-76.78630346418045
 30
0.0000000000002132
 10
-984.5322574121448
 20
-76.78630264856112
 30
0.0000000000001599
 10
-985.4578073263351
 20
-76.7863017644557
 30
0.0000000000001599
 10
-985.6283217465485
 20
-76.78630160157666
 30
0.0000000000000888
 10
-985.861645982731
 20
-76.82085130001526
 30
0.000000000000373
 10
-985.9968976113506
 20
-76.85494275519075
 30
0.0000000000004974
 10
-986.4450246619547
 20
-76.96789742652796
 30
0.0000000000009415
 10
-986.8701967565828
 20
-77.21477257227459
 30
0.0000000000011546
 10
-987.1735360536687
 20
-77.55454379625688
 30
0.0000000000008171
 10
-987.4568255470093
 20
-77.87185717707505
 30
0.0000000000013856
 10
-987.643015285327
 20
-78.2908592908513
 30
0.0000000000009237
 10
-987.7162868107028
 20
-78.66656375375474
 30
0.0000000000007283
 10
-987.7448542392931
 20
-78.81304508275694
 30
0.0000000000006217
 10
-987.7578093878428
 20
-78.94442865332056
 30
0.0000000000007283
 10
-987.757809523358
 20
-79.08629956752867
 30
0.000000000000675
 10
-987.7578098932547
 20
-79.47354430587572
 30
0.0000000000020783
 10
-987.7578104488733
 20
-80.05522215156123
 30
0.0000000000016698
 10
-987.7578109561552
 20
-80.58629956743857
 30
0.0000000000010125
 10
-987.7578113147361
 20
-80.96170071726065
 30
0.0000000000010836
 10
-987.6589255651673
 20
-81.29423371413613
 30
0.0000000000011191
 10
-987.5285590690056
 20
-81.57117417329759
 30
0.0000000000009237
 10
-987.4116275244482
 20
-81.81957446473445
 30
0.0000000000007283
 10
-987.2646877379596
 20
-82.0477561663867
 30
0.0000000000004619
 10
-987.0206301467705
 20
-82.27378396507612
 30
0.0000000000003908
 10
-986.5763747441361
 20
-82.68521993075948
 30
0.0000000000007283
 10
-985.9748382491693
 20
-82.88630127057947
 30
0.0000000000002665
 10
-985.457813153188
 20
-82.88630176445321
 30
0.000000000000302
 10
-985.4533131533154
 20
-82.88630176875166
 30
0.0000000000002487
 10
-985.4488131534424
 20
-82.88630177305011
 30
0.000000000000302
 10
-985.4443131535695
 20
-82.8863017773485
 30
0.000000000000302
 10
-982.946948349338
 20
-82.88630416282106
 30
0.0000000000003908
 10
-980.4495835451072
 20
-82.8863065292683
 30
0.0000000000004441
 10
-978.1929667732679
 20
-82.88630865341987
 30
0.0000000000004796
 10
-977.0476825397798
 20
-82.88630973147505
 30
0.0000000000004619
 10
-975.9644100134178
 20
-82.88631074733844
 30
0.0000000000004796
 10
-974.9746215431207
 20
-82.88631167292079
 30
0.0000000000004796
 10
-974.4733661444424
 20
-82.88631214166052
 30
0.0000000000004974
 10
-973.9960864234925
 20
-82.88631258725565
 30
0.0000000000005151
 10
-973.5468700817811
 20
-82.88631300610289
 30
0.0000000000005151
 10
-973.2744637004776
 20
-82.8863132600933
 30
0.0000000000005151
 10
-972.9849016525454
 20
-82.88631352992016
 30
0.0000000000005151
 10
-972.5983735872306
 20
-82.88631388961452
 30
0.0000000000005329
 10
-972.4009812905029
 20
-82.88631407330335
 30
0.0000000000005329
 10
-972.1862510326559
 20
-82.88631427301371
 30
0.0000000000005507
 10
-971.957813534629
 20
-82.88631448531212
 30
0.0000000000005507
 10
-971.8539677999235
 20
-82.8863145818212
 30
0.000000000000675
 10
-971.6953749119142
 20
-82.93739977183941
 30
0.0000000000008704
 10
-971.606120751573
 20
-82.99006398081301
 30
0.0000000000009237
 10
-971.4898952164924
 20
-83.05864258649554
 30
0.0000000000010125
 10
-971.3881121589132
 20
-83.15802478883968
 30
0.0000000000009948
 10
-971.3291270733428
 20
-83.2784953206621
 30
0.0000000000009059
 10
-971.2796771340652
 20
-83.37949136781105
 30
-0.0000000000001243
 10
-971.2578142087023
 20
-83.48766647247934
 30
0.0000000000006217
 10
-971.2578140109405
 20
-83.58631325622326
 30
0.0000000000002309
  0
SPLINE
  5
142
330
1F
100
AcDbEntity
  8
0
100
AcDbSpline
210
-0.0000000000005355
220
-0.0000000000000016
230
1.0
 70
    12
 71
     3
 72
    68
 73
    64
 74
     0
 42
0.000000001
 43
0.0000000001
 40
0.0
 40
0.0
 40
0.0
 40
0.0
 40
0.0836997683774049
 40
0.0836997683774049
 40
0.0836997683774049
 40
0.167399536754809
 40
0.167399536754809
 40
0.167399536754809
 40
0.1675061064089761
 40
0.1675061064089761
 40
0.1675061064089761
 40
0.2270063923380739
 40
0.2270063923380739
 40
0.2270063923380739
 40
0.2567565353026228
 40
0.2567565353026228
 40
0.2567565353026228
 40
0.2725445149947707
 40
0.2725445149947707
 40
0.2725445149947707
 40
0.2811737029935288
 40
0.2811737029935288
 40
0.2811737029935288
 40
0.2865066782671716
 40
0.2865066782671716
 40
0.2865066782671716
 40
0.3293031792286875
 40
0.3293031792286875
 40
0.3293031792286875
 40
0.357668959306356
 40
0.357668959306356
 40
0.357668959306356
 40
0.410358129555632
 40
0.410358129555632
 40
0.410358129555632
 40
7.956710555808442
 40
7.956710555808442
 40
7.956710555808442
 40
13.69776087310413
 40
13.69776087310413
 40
19.59504288646203
 40
19.59504288646203
 40
19.95386518297243
 40
19.95386518297243
 40
19.95386518297243
 40
27.59149103065713
 40
27.59149103065713
 40
27.59149103065713
 40
33.55991650439623
 40
33.55991650439623
 40
39.58863917534213
 40
39.58863917534213
 40
39.58863917534213
 40
47.13499128776573
 40
47.13499128776573
 40
47.13499128776573
 40
48.22043675665269
 40
48.22043675665269
 40
48.22043675665269
 40
49.22043675665269
 40
49.22043675665269
 40
49.22043675665269
 40
50.59571374189804
 40
50.59571374189804
 40
50.59571374189804
 40
50.59571374189804
 10
-971.2578140105406
 20
-83.58631325622386
 30
0.0000000000002842
 41
1.0
 10
-971.2578136525213
 20
-83.76489917703468
 30
0.0000000000000533
 41
1.0
 10
-971.336559754598
 20
-83.95500976473043
 30
-0.0000000000001421
 41
1.0
 10
-971.4628390039612
 20
-84.08128914662908
 30
0.0000000000000888
 41
1.0
 10
-971.5891182533264
 20
-84.2075685285283
 30
0.0000000000014388
 41
1.0
 10
-971.779228758373
 20
-84.28631483013226
 30
0.0000000000009059
 41
1.0
 10
-971.957814679185
 20
-84.2863146595455
 30
0.000000000000604
 41
1.0
 10
-971.9629812895147
 20
-84.28631465461036
 30
0.0000000000006395
 41
1.0
 10
-971.9681478998394
 20
-84.28631464967512
 30
0.0000000000005862
 41
1.0
 10
-971.9733145101663
 20
-84.28631464473992
 30
0.0000000000005684
 41
1.0
 10
-974.8579517378729
 20
-84.28631188931241
 30
0.000000000000604
 41
1.0
 10
-977.7425889655795
 20
-84.28630913388492
 30
0.000000000000675
 41
1.0
 10
-980.3326443949789
 20
-84.28630665984421
 30
0.0000000000006573
 41
1.0
 10
-981.6276721096782
 20
-84.28630542282387
 30
0.0000000000006395
 41
1.0
 10
-982.8490543748015
 20
-84.28630425615022
 30
0.0000000000006217
 41
1.0
 10
-983.9599684655592
 20
-84.2863031949966
 30
0.0000000000005862
 41
1.0
 10
-984.5495148460754
 20
-84.28630263185741
 30
0.0000000000005507
 41
1.0
 10
-985.107950354822
 20
-84.28630209843554
 30
0.0000000000005329
 41
1.0
 10
-985.6297716253973
 20
-84.28630159998789
 30
0.0000000000004974
 41
1.0
 10
-985.9149818887335
 20
-84.28630132755291
 30
0.0000000000004974
 41
1.0
 10
-986.231712822841
 20
-84.28630102500907
 30
0.0000000000004441
 41
1.0
 10
-986.6371705557389
 20
-84.28630063771278
 30
0.0000000000003908
 41
1.0
 10
-986.8877498761063
 20
-84.2863003983575
 30
0.000000000000373
 41
1.0
 10
-987.1630338964736
 20
-84.28630013540413
 30
0.0000000000003553
 41
1.0
 10
-987.4576456608782
 20
-84.28629985398876
 30
0.0000000000003197
 41
1.0
 10
-987.5616950626319
 20
-84.28629975459992
 30
0.0000000000008349
 41
1.0
 10
-987.7229088241
 20
-84.23833048834493
 30
0.0000000000005862
 41
1.0
 10
-987.8051729134273
 20
-84.19206877016677
 30
0.0000000000006217
 41
1.0
 10
-987.8596980501503
 20
-84.16140622312729
 30
0.0000000000006395
 41
1.0
 10
-987.9098250963613
 20
-84.12406945195597
 30
0.0000000000007105
 41
1.0
 10
-987.9526209444485
 20
-84.08127339543112
 30
0.0000000000006928
 41
1.0
 10
-988.0321138305836
 20
-84.00178012212483
 30
0.0000000000010481
 41
1.0
 10
-988.0952170736041
 20
-83.89781936992262
 30
0.0000000000007283
 41
1.0
 10
-988.1284660177829
 20
-83.78629773317221
 30
0.0000000000011013
 41
1.0
 10
-992.836204585974
 20
-83.78629323627155
 30
-0.0000000000002665
 41
1.0
 10
-997.5439431541667
 20
-83.78628873937559
 30
-0.0000000000000533
 41
1.0
 10
-1002.25168172236
 20
-83.78628424248461
 30
-0.0000000000012612
 41
1.0
 10
-1002.93535644864
 20
-83.78628358942977
 30
-0.0000000000006217
 41
1.0
 10
-1003.66301135358
 20
-84.07203081696522
 30
-0.0000000000041922
 41
1.0
 10
-1004.68116492375
 20
-85.02517898574723
 30
-0.000000000013749
 41
1.0
 10
-1005.01616278618
 20
-85.74997621790982
 30
-0.000000000016982
 41
1.0
 10
-1005.05070568936
 20
-86.50062579324741
 30
-0.0000000000176215
 41
1.0
 10
-1005.05168435615
 20
-86.54355110545237
 30
-0.0000000000178169
 41
1.0
 10
-1005.05168439697
 20
-86.58628156796181
 30
-0.0000000000174438
 41
1.0
 10
-1005.05172133126
 20
-125.2525965211102
 30
-0.0000000000159517
 41
1.0
 10
-1005.05175826554
 20
-163.9189114742753
 30
-0.0000000000102496
 41
1.0
 10
-1005.05179519981
 20
-202.5852264274571
 30
-0.0000000000010303
 41
1.0
 10
-1005.05179582705
 20
-203.2418755129728
 30
-0.0000000000009592
 41
1.0
 10
-1004.78163634657
 20
-204.0106202003533
 30
-0.0000000000011902
 41
1.0
 10
-1003.69273748254
 20
-205.1086276109402
 30
-0.0000000000027001
 41
1.0
 10
-1002.91508326342
 20
-205.3852279055294
 30
-0.0000000000037126
 41
1.0
 10
-1002.25180025084
 20
-205.3852291020351
 30
-0.0000000000047429
 41
1.0
 10
-997.544078090992
 20
-205.3852375943655
 30
-0.0000000000115996
 41
1.0
 10
-992.836355931149
 20
-205.3852460866959
 30
-0.0000000000103562
 41
1.0
 10
-988.1286337713072
 20
-205.3852545790253
 30
-0.0000000000009948
 41
1.0
 10
-988.0524756133519
 20
-205.1298119762525
 30
0.0000000000001243
 41
0.9042037654024939
 10
-987.8553326657742
 20
-204.9504083905725
 30
0.0000000000001243
 41
0.9042037654024939
 10
-987.5938615847397
 20
-204.8986023859297
 30
0.0000000000001243
 41
1.0
 10
-982.3365697298681
 20
-204.8986082707693
 30
0.0000000000000711
 41
1.0
 10
-977.0792778749962
 20
-204.898614155609
 30
0.0000000000000355
 41
1.0
 10
-971.8219860201243
 20
-204.8986200404486
 30
0.0
 41
1.0
 10
-971.4795501819132
 20
-204.9664409695177
 30
0.0000000000000888
 41
0.8484980335615365
 10
-971.2579807983575
 20
-205.2361982492744
 30
0.0000000000000888
 41
0.8484980335615365
 10
-971.2579824613907
 20
-205.5852856046861
 30
0.0000000000000888
 41
1.0
  0
SPLINE
  5
146
330
1F
100
AcDbEntity
  8
0
100
AcDbSpline
210
-0.0000000000000084
220
0.0000000000000205
230
1.0
 70
     8
 71
     3
 72
    45
 73
    41
 74
     0
 42
0.000000001
 43
0.0000000001
 40
0.0
 40
0.0
 40
0.0
 40
0.0
 40
0.19770563214987
 40
0.19770563214987
 40
0.6613439801775211
 40
0.6613439801775211
 40
0.6613439801775211
 40
1.082369427676229
 40
1.082369427676229
 40
1.082369427676229
 40
1.3887230070893
 40
1.3887230070893
 40
1.743714654107789
 40
1.743714654107789
 40
1.743714654107789
 40
2.1647401016065
 40
2.1647401016065
 40
2.1647401016065
 40
2.48010856928116
 40
2.48010856928116
 40
2.826085328011279
 40
2.826085328011279
 40
2.826085328011279
 40
3.24711077550999
 40
3.24711077550999
 40
3.24711077550999
 40
3.553464354947339
 40
3.553464354947339
 40
3.908456001928199
 40
3.908456001928199
 40
3.908456001928199
 40
4.32948144942691
 40
4.32948144942691
 40
4.32948144942691
 40
4.644849917115309
 40
4.644849917115309
 40
4.990826675844999
 40
4.990826675844999
 40
4.990826675844999
 40
5.41185212334371
 40
5.41185212334371
 40
5.41185212334371
 40
5.41185212334371
 10
-971.257982505204
 20
-205.5852856046846
 30
0.0000000000000533
 10
-971.257982975152
 20
-205.6839323536484
 30
-0.0000000000000178
 10
-971.2798461828361
 20
-205.7921073529662
 30
0.0000000000000355
 10
-971.4452617115448
 20
-206.1299480638196
 30
-0.0000000000002132
 10
-971.726647840739
 20
-206.2852826872364
 30
-0.0000000000002665
 10
-971.9579837679502
 20
-206.2852822699217
 30
-0.0000000000002309
 10
-976.4579836425218
 20
-206.2852741522196
 30
0.0000000000002665
 10
-980.9579835170941
 20
-206.2852660345164
 30
0.0000000000004086
 10
-985.4579833916671
 20
-206.2852579168132
 30
0.000000000000373
 10
-986.0016103297889
 20
-206.2852569361455
 30
0.0000000000005329
 10
-986.579960798736
 20
-206.5036878223615
 30
0.000000000000604
 10
-987.4645792569429
 20
-207.2934487909636
 30
0.0000000000002309
 10
-987.7579864043749
 20
-207.9553181799947
 30
0.0
 10
-987.7579875407251
 20
-208.5852537677565
 30
0.0000000000000533
 10
-987.7579884426832
 20
-209.0852537677545
 30
0.0000000000000533
 10
-987.75798934464
 20
-209.5852537677798
 30
0.0000000000000711
 10
-987.757990246594
 20
-210.0852537678314
 30
-0.0000000000002132
 10
-987.7579911792611
 20
-210.6022788638166
 30
0.0000000000000178
 10
-987.5569114991652
 20
-211.203815913595
 30
0.0000000000000711
 10
-986.694109953966
 20
-212.135446595525
 30
0.0000000000004974
 10
-986.0251996974808
 20
-212.385256893602
 30
0.000000000000675
 10
-985.457994395664
 20
-212.3852579168027
 30
0.0000000000007105
 10
-965.124661062364
 20
-212.385294596797
 30
0.0000000000002665
 10
-944.791327729064
 20
-212.3853312767921
 30
0.0000000000002665
 10
-924.457994395764
 20
-212.3853679567873
 30
0.0000000000005684
 10
-923.9143674575981
 20
-212.385368937454
 30
0.0000000000002842
 10
-923.3360169886051
 20
-212.1669380511997
 30
0.000000000000373
 10
-922.4513985304712
 20
-211.3771770825713
 30
0.000000000000977
 10
-922.1579913830819
 20
-210.7153076935908
 30
0.0000000000004086
 10
-922.1579902467192
 20
-210.085372105839
 30
0.0000000000006928
 10
-922.1579893447509
 20
-209.5853721058399
 30
0.0000000000006573
 10
-922.1579884427839
 20
-209.0853721058408
 30
0.0000000000006573
 10
-922.1579875408179
 20
-208.5853721058407
 30
0.0000000000004974
 10
-922.1579866081381
 20
-208.0683470098364
 30
0.0000000000005151
 10
-922.3590662882381
 20
-207.4668099600217
 30
0.0000000000004441
 10
-923.2218678334652
 20
-206.5351792780715
 30
0.0000000000002665
 10
-923.890778089952
 20
-206.2853689799976
 30
0.0000000000001599
 10
-924.4579833917651
 20
-206.2853679567968
 30
0.0000000000001421
 10
-928.9579835171778
 20
-206.2853598390927
 30
-0.0000000000000178
 10
-933.457983642592
 20
-206.2853517213885
 30
-0.0000000000001599
 10
-937.9579837680051
 20
-206.2853436036844
 30
-0.0000000000003197
  0
SPLINE
  5
154
330
1F
100
AcDbEntity
  8
0
100
AcDbSpline
210
-0.0000000000000012
220
0.0000000000000433
230
1.0
 70
     8
 71
     3
 72
    98
 73
    94
 74
     0
 42
0.000000001
 43
0.0000000001
 40
0.0
 40
0.0
 40
0.0
 40
0.0
 40
2.014478308958654
 40
2.014478308958654
 40
2.014478308958654
 40
3.1195497638332
 40
3.1195497638332
 40
3.1195497638332
 40
3.522654087083448
 40
3.522654087083448
 40
3.522654087083448
 40
3.917047442910627
 40
3.917047442910627
 40
3.917047442910627
 40
4.028956617917308
 40
4.028956617917308
 40
4.028956617917308
 40
5.606488203367772
 40
5.606488203367772
 40
5.606488203367772
 40
6.117146045927939
 40
6.117146045927939
 40
6.117146045927939
 40
8.307253317701757
 40
8.307253317701757
 40
8.307253317701757
 40
9.312658430147484
 40
9.312658430147484
 40
9.312658430147484
 40
12.47899100577243
 40
12.47899100577243
 40
12.47899100577243
 40
14.04930324737485
 40
14.04930324737485
 40
14.04930324737485
 40
15.2955312197287
 40
15.2955312197287
 40
15.2955312197287
 40
18.2051426923526
 40
18.2051426923526
 40
18.2051426923526
 40
18.20868345178628
 40
18.20868345178628
 40
18.20868345178628
 40
19.99339759740633
 40
19.99339759740633
 40
19.99339759740633
 40
20.88575467021635
 40
20.88575467021635
 40
20.88575467021635
 40
21.33193320662137
 40
21.33193320662137
 40
21.33193320662137
 40
21.55502247482387
 40
21.55502247482387
 40
21.55502247482387
 40
21.69108503443449
 40
21.69108503443449
 40
21.69108503443449
 40
21.74445437124225
 40
21.74445437124225
 40
21.74445437124225
 40
21.77811174302638
 40
21.77811174302638
 40
21.77811174302638
 40
21.86851157606326
 40
21.86851157606326
 40
21.86851157606326
 40
24.3981025659092
 40
24.3981025659092
 40
24.3981025659092
 40
26.63995931322655
 40
26.63995931322655
 40
26.63995931322655
 40
27.47663330209335
 40
27.47663330209335
 40
27.47663330209335
 40
30.68378884657
 40
30.68378884657
 40
30.68378884657
 40
32.2290554681469
 40
32.2290554681469
 40
32.2290554681469
 40
33.5006739119684
 40
33.5006739119684
 40
33.5006739119684
 40
36.4102853845923
 40
36.4102853845923
 40
36.4102853845923
 40
36.41382614402598
 40
36.41382614402598
 40
36.41382614402598
 40
39.95104481827521
 40
39.95104481827521
 40
39.95104481827521
 40
39.95104481827521
 10
-888.6183171014181
 20
-206.2854326096089
 30
0.0000000000000888
 10
-891.1785452974958
 20
-206.285427991126
 30
0.000000000000302
 10
-893.7387734935736
 20
-206.2854233726428
 30
0.0000000000004441
 10
-896.0079124384478
 20
-206.2854192792654
 30
0.0000000000004441
 10
-897.2526816990415
 20
-206.2854170337835
 30
0.0000000000004441
 10
-898.4098554790698
 20
-206.2854149463182
 30
0.0000000000004796
 10
-899.4313820002046
 20
-206.2854131035517
 30
0.0000000000004263
 10
-899.8040110778701
 20
-206.2854124313532
 30
0.0000000000004086
 10
-900.1585906540109
 20
-206.2854117917152
 30
0.0000000000004086
 10
-900.4927883945892
 20
-206.2854111888444
 30
0.0000000000003908
 10
-900.8197642189955
 20
-206.2854105990016
 30
0.0000000000003553
 10
-901.2190806155999
 20
-206.2854098786611
 30
0.0000000000003375
 10
-901.696205301045
 20
-206.2854090179596
 30
0.0000000000003197
 10
-901.8315895034781
 20
-206.2854087737355
 30
0.0000000000003375
 10
-901.972473924469
 20
-206.2854085195892
 30
0.000000000000302
 10
-902.118316725136
 20
-206.2854082564984
 30
0.000000000000302
 10
-902.4596441776989
 20
-206.2854076407658
 30
0.0000000000001599
 10
-902.9848188919487
 20
-206.418753719386
 30
0.0000000000001599
 10
-903.3491460925169
 20
-206.6452852398116
 30
0.0000000000003197
 10
-903.467081317361
 20
-206.7186150536545
 30
0.0000000000003908
 10
-903.5688528515628
 20
-206.7971655847735
 30
0.0000000000003908
 10
-903.6500741083139
 20
-206.8696774997217
 30
0.0000000000004441
 10
-903.9984155029005
 20
-207.1806663047158
 30
0.0000000000008349
 10
-904.2404674382636
 20
-207.6211322400513
 30
0.0000000000004796
 10
-904.3470167587674
 20
-208.0358552597872
 30
0.0000000000003375
 10
-904.3959299937228
 20
-208.2262407489664
 30
0.0000000000002665
 10
-904.4183205379216
 20
-208.3989915505658
 30
0.0000000000002842
 10
-904.4183208741944
 20
-208.5854041074417
 30
0.000000000000302
 10
-904.41832158294
 20
-208.9782970713269
 30
0.0000000000003553
 10
-904.4183226306724
 20
-209.5591081690774
 30
0.0000000000002665
 10
-904.4183235800632
 20
-210.0854041075185
 30
0.0000000000002665
 10
-904.4183242300524
 20
-210.4457264593313
 30
0.0000000000003375
 10
-904.3309494950007
 20
-210.7592659000613
 30
0.0000000000003375
 10
-904.2120417753258
 20
-211.026617986545
 30
0.0000000000003375
 10
-904.1176744753313
 20
-211.2387933996993
 30
0.0000000000003375
 10
-903.9991369144782
 20
-211.4394735140824
 30
0.0000000000004086
 10
-903.8058100927239
 20
-211.6482227911194
 30
0.0000000000004441
 10
-903.3544432874348
 20
-212.1355969352102
 30
0.0000000000005151
 10
-902.6855330309501
 20
-212.3854072332871
 30
0.0000000000001599
 10
-902.118327729134
 20
-212.3854082564878
 30
-0.0000000000000355
 10
-902.0979943958002
 20
-212.3854082931679
 30
-0.0000000000000355
 10
-902.0776610624675
 20
-212.385408329848
 30
-0.0000000000000178
 10
-902.057327729134
 20
-212.3854083665278
 30
0.0
 10
-891.8083434908
 20
-212.3854268550209
 30
0.0000000000001599
 10
-881.5593592524658
 20
-212.385445343514
 30
0.0000000000002842
 10
-871.39481707758
 20
-212.385463679679
 30
0.0000000000004086
 10
-866.3125459901367
 20
-212.3854728477615
 30
0.0000000000004619
 10
-861.2513854185554
 20
-212.385481977762
 30
0.0000000000005507
 10
-856.2218906207672
 20
-212.3854910506394
 30
0.0000000000006217
 10
-853.7071432218727
 20
-212.3854955870781
 30
0.0000000000006573
 10
-851.2003122664268
 20
-212.3855001092362
 30
0.0000000000007283
 10
-848.7027171616706
 20
-212.3855046147333
 30
0.0000000000007638
 10
-847.4539196092921
 20
-212.3855068674819
 30
0.0000000000007638
 10
-846.2074310195863
 20
-212.3855091160652
 30
0.0000000000007638
 10
-844.963416318458
 20
-212.3855113601857
 30
0.0000000000007994
 10
-844.20468943844
 20
-212.385512728879
 30
0.0000000000007994
 10
-843.446882796185
 20
-212.3855140959124
 30
0.0000000000007994
 10
-842.6900338086744
 20
-212.3855154612181
 30
0.0000000000008349
 10
-842.3931664805667
 20
-212.3855159967471
 30
0.0000000000008349
 10
-842.0964464906401
 20
-212.3855165320105
 30
0.0000000000008171
 10
-841.7998760969163
 20
-212.385517067004
 30
0.0000000000008349
 10
-841.612843980747
 20
-212.3855174043976
 30
0.0000000000008349
 10
-841.3805413779208
 20
-212.3855178234562
 30
0.0000000000008527
 10
-841.1183277292336
 20
-212.3855182964724
 30
0.0000000000008349
 10
-841.0944201367829
 20
-212.3855183396
 30
0.0000000000009059
 10
-841.0639760416916
 20
-212.3848626276884
 30
0.0000000000008527
 10
-841.0461046019529
 20
-212.3842282906339
 30
0.0000000000008527
 10
-840.5460214555599
 20
-212.3664781107537
 30
0.0000000000006573
 10
-839.9792279012084
 20
-212.1654191965824
 30
0.0000000000004796
 10
-839.5555090455545
 20
-211.773004809118
 30
0.0000000000003908
 10
-839.1799870819927
 20
-211.425226513807
 30
0.0000000000001954
 10
-838.953881179106
 20
-210.9491414622327
 30
0.0000000000000533
 10
-838.8659334663806
 20
-210.5296158619792
 30
0.0000000000000178
 10
-838.8331108680118
 20
-210.3730464657339
 30
0.0000000000000178
 10
-838.8183238415241
 20
-210.2303924466509
 30
-0.0000000000000178
 10
-838.818323580188
 20
-210.0855224455251
 30
0.0
 10
-838.8183228545315
 20
-209.683259044083
 30
0.0000000000000533
 10
-838.8183218320115
 20
-209.116428478989
 30
0.0000000000001066
 10
-838.8183208743049
 20
-208.5855224454524
 30
0.0000000000001954
 10
-838.8183202372928
 20
-208.2323939540714
 30
0.0000000000003197
 10
-838.9033600748877
 20
-207.9211725100508
 30
0.000000000000373
 10
-839.0188718289751
 20
-207.6572963292394
 30
0.0000000000004263
 10
-839.1139278373849
 20
-207.4401494539237
 30
0.0000000000004441
 10
-839.2335687267184
 20
-207.23570606697
 30
0.0000000000005329
 10
-839.4308343616438
 20
-207.0227037618515
 30
0.0000000000005507
 10
-839.8822011669325
 20
-206.5353296177608
 30
0.0000000000006573
 10
-840.551111423419
 20
-206.2855193196836
 30
0.0000000000005862
 10
-841.1183167252344
 20
-206.2855182964829
 30
0.0000000000005507
 10
-841.1228167253598
 20
-206.2855182883652
 30
0.0000000000005684
 10
-841.1273167254856
 20
-206.2855182802474
 30
0.0000000000005329
 10
-841.1318167256112
 20
-206.2855182721297
 30
0.0000000000005507
 10
-845.6273168508989
 20
-206.2855101625433
 30
0.0000000000003908
 10
-850.1228169761875
 20
-206.2855020529569
 30
0.0000000000005151
 10
-854.6183171014751
 20
-206.2854939433704
 30
0.0000000000009592
  0
LWPOLYLINE
  5
162
330
1F
100
AcDbEntity
  8
0
100
AcDbPolyline
 90
        8
 70
     1
 43
0.0
 10
-858.376222682823
 20
-131.4488786232789
 10
-858.3762341448039
 20
-143.448878579243
 42
0.4142135749705639
 10
-857.376235100523
 20
-144.4488795784804
 10
-845.3762351005281
 20
-144.4488910403919
 42
0.4142135622034256
 10
-844.376234145321
 20
-143.4488919961799
 10
-844.3762226828992
 20
-131.4488919525353
 42
0.4142135495882674
 10
-845.376221727621
 20
-130.4488910409774
 10
-857.376221727176
 20
-130.4488795784877
 42
0.414213562372606
  0
LWPOLYLINE
  5
163
330
1F
100
AcDbEntity
  8
0
100
AcDbPolyline
 90
        8
 70
     1
 43
0.0
 10
-678.6886807851219
 20
-87.5865624691683
 10
-690.688680784677
 20
-87.58655100667654
 42
0.4142135623731939
 10
-691.688681740324
 20
-88.58655005146873
 10
-691.6886932023352
 20
-100.5865500073834
 42
0.4142135750028629
 10
-690.688694158023
 20
-101.5865510066701
 10
-678.688694158029
 20
-101.5865624686419
 42
0.4142135622211257
 10
-677.6886932028221
 20
-100.5865634243696
 10
-677.6886817403711
 20
-88.5865633807553
 42
0.4142135495970602
  0
LWPOLYLINE
  5
164
330
1F
100
AcDbEntity
  8
0
100
AcDbPolyline
 90
        8
 70
     1
 43
0.0
 10
-763.4137584450798
 20
-162.4989876421628
 10
-763.4137469826281
 20
-150.4989875985486
 42
0.4142135495968052
 10
-764.4137460273799
 20
-149.4989866869614
 10
-776.413746027966
 20
-149.4989752244685
 42
0.414213562373173
 10
-777.4137469825821
 20
-150.498974269261
 10
-777.4137584456236
 20
-162.498974226286
 42
0.4142135752836753
 10
-776.4137594002818
 20
-163.4989752244625
 10
-764.4137594002868
 20
-163.4989866874643
 42
0.4142135625221144
  0
LWPOLYLINE
  5
165
330
1F
100
AcDbEntity
  8
0
100
AcDbPolyline
 90
        8
 70
     1
 43
0.0
 10
-678.6887035310041
 20
-111.3990624691577
 42
-0.4142135495973618
 10
-677.6887044862514
 20
-112.399063380745
 10
-677.6887159487028
 20
-124.3990634243594
 42
-0.4142135622205585
 10
-678.688716903909
 20
-125.3990624686308
 10
-690.6887169039041
 20
-125.3990510066592
 42
-0.4142135750205475
 10
-691.688715948216
 20
-124.3990500073117
 10
-691.6887044862058
 20
-112.3990500514575
 42
-0.4142135623735165
 10
-690.6887035305569
 20
-111.3990510066653
  0
LWPOLYLINE
  5
166
330
1F
100
AcDbEntity
  8
0
100
AcDbPolyline
 90
        8
 70
     1
 43
0.0
 10
-733.5473672530029
 20
-101.5865100679691
 10
-721.547336736009
 20
-101.5865215297395
 42
0.4142135622208393
 10
-720.5473357808031
 20
-100.5865224854672
 10
-720.5473243184802
 20
-88.58652244173303
 42
0.4142135495620191
 10
-721.547323363103
 20
-87.58652153009553
 10
-733.5473539680661
 20
-87.58651006774487
 42
0.4142135368919658
 10
-734.547354836273
 20
-88.58650911253713
 10
-734.5473662980258
 20
-100.5865090682311
 42
0.4142135754832453
  0
LWPOLYLINE
  5
167
330
1F
100
AcDbEntity
  8
0
100
AcDbPolyline
 90
        8
 70
     1
 43
0.0
 10
-793.7011939469084
 20
-99.58645547350592
 42
-0.4142135623733865
 10
-795.701193946909
 20
-101.5864554735067
 10
-802.2762061543811
 20
-101.5864554735061
 42
-0.4142135623730951
 10
-804.2762061543811
 20
-99.58645547350592
 10
-804.2762061543811
 20
-89.58643964127501
 42
-0.4142135623730951
 10
-802.2762061543811
 20
-87.58643964127484
 10
-795.701193946909
 20
-87.58643964127502
 42
-0.4142135623730951
 10
-793.701193946909
 20
-89.58643964127501
  0
LWPOLYLINE
  5
168
330
1F
100
AcDbEntity
  8
0
100
AcDbPolyline
 90
        8
 70
     1
 43
0.0
 10
-881.426169532804
 20
-87.58635775612495
 10
-888.0011817402781
 20
-87.58635775612495
 42
0.4142135623730951
 10
-890.0011817402782
 20
-89.58635775612533
 10
-890.0011817402782
 20
-99.58637358835638
 42
0.4142135623730951
 10
-888.0011817402781
 20
-101.5863735883557
 10
-881.426169532804
 20
-101.5863735883554
 42
0.4142135623729494
 10
-879.4261695328041
 20
-99.58637358835638
 10
-879.4261695328041
 20
-89.58635775612533
 42
0.4142135623730951
  0
LWPOLYLINE
  5
170
330
1F
100
AcDbEntity
  8
0
100
AcDbPolyline
 90
        8
 70
     1
 43
0.0
 10
-980.4887134113801
 20
-89.58626677258276
 42
-0.4142135623730951
 10
-978.48871341138
 20
-87.58626677258257
 10
-971.913701203905
 20
-87.58626677258259
 42
-0.4142135623730951
 10
-969.913701203905
 20
-89.58626677258276
 10
-969.913701203905
 20
-99.58628260481381
 42
-0.4142135623730951
 10
-971.913701203905
 20
-101.5862826048135
 10
-978.48871341138
 20
-101.5862826048138
 42
-0.4142135623730951
 10
-980.4887134113799
 20
-99.58628260481381
  0
LWPOLYLINE
  5
171
330
1F
100
AcDbEntity
  8
0
100
AcDbPolyline
 90
        4
 70
     1
 43
0.0
 10
-722.547335780818
 20
-104.3657054911751
 10
-999.2512084609938
 20
-104.3657054911671
 42
1.0
 10
-999.2512084609833
 20
-108.365705491168
 10
-722.547335780808
 20
-108.3657054911745
 42
1.0
  0
LWPOLYLINE
  5
172
330
1F
100
AcDbEntity
  8
0
100
AcDbPolyline
 90
        4
 70
     1
 43
0.0
 10
-717.7473243184869
 20
-90.58652417169623
 42
-1.0
 10
-713.7473243184849
 20
-90.58652417169623
 10
-713.7473243184916
 20
-102.5080760361809
 42
-1.0
 10
-717.7473243184924
 20
-102.5080760361809
  0
LWPOLYLINE
  5
173
330
1F
100
AcDbEntity
  8
0
100
AcDbPolyline
 90
        4
 70
     1
 43
0.0
 10
-717.747324318492
 20
-110.3139159354645
 10
-717.7473243184949
 20
-199.9925802030151
 42
1.0
 10
-713.7473243184921
 20
-199.9925802030161
 10
-713.7473243184904
 20
-110.3139159354645
 42
1.0
  0
LWPOLYLINE
  5
174
330
1F
100
AcDbEntity
  8
0
100
AcDbPolyline
 90
        4
 70
     1
 43
0.0
 10
-708.738686768136
 20
-108.3658257174629
 42
-1.0
 10
-708.738686768146
 20
-104.3658257174617
 10
-660.6349031493441
 20
-104.3658257174614
 42
-1.0
 10
-660.6349031493441
 20
-108.3658257174633
  0
LWPOLYLINE
  5
175
330
1F
100
AcDbEntity
  8
0
100
AcDbPolyline
 90
        8
 70
     1
 43
0.0
 10
-696.7387647766948
 20
-124.3990452276075
 42
-0.4142135622205689
 10
-697.7387657319011
 20
-125.3990442718788
 10
-709.7387046968961
 20
-125.3990328094559
 42
-0.4142135750115621
 10
-710.7387037411776
 20
-124.3990318105881
 10
-710.7386922786965
 20
-112.3990318547641
 42
-0.4142135623728401
 10
-709.7386913234901
 20
-111.3990328099728
 10
-697.7387523589941
 20
-111.3990442722353
 42
-0.4142135494738103
 10
-696.7387533143733
 20
-112.399045183573
  0
LWPOLYLINE
  5
176
330
1F
100
AcDbEntity
  8
0
100
AcDbPolyline
 90
        8
 70
     1
 43
0.0
 10
-696.7387829733882
 20
-143.4490330205987
 42
-0.4142135622028377
 10
-697.738783928595
 20
-144.44903206481
 10
-709.7387228935899
 20
-144.449020602417
 42
-0.4142135750054697
 10
-710.7387219378416
 20
-143.4490196035399
 10
-710.7387104753899
 20
-131.4490196477552
 42
-0.4142135623728089
 10
-709.7387095201829
 20
-130.4490206029633
 10
-697.7387705556889
 20
-130.4490320651964
 42
-0.4142135494629365
 10
-696.7387715110954
 20
-131.4490329765239
  0
LWPOLYLINE
  5
177
330
1F
100
AcDbEntity
  8
0
100
AcDbPolyline
 90
        8
 70
     1
 43
0.0
 10
-697.7387296131141
 20
-87.58654427224618
 10
-709.7386685776069
 20
-87.58653280998315
 42
0.4142135623728089
 10
-710.7386695328141
 20
-88.58653185477438
 10
-710.7386809952969
 20
-100.5865318105992
 42
0.4142135750113124
 10
-709.7386819510149
 20
-101.5865328094669
 10
-697.73874298602
 20
-101.5865442718902
 42
0.4142135622208759
 10
-696.738742030813
 20
-100.5865452276178
 10
-696.7387305684915
 20
-88.58654518358328
 42
0.4142135494743618
  0
LWPOLYLINE
  5
178
330
1F
100
AcDbEntity
  8
0
100
AcDbPolyline
 90
        8
 70
     1
 43
0.0
 10
-678.6887217276972
 20
-130.4490502621484
 42
-0.4142135495883402
 10
-677.6887226829753
 20
-131.4490511737059
 10
-677.6887341453965
 20
-143.4490512173494
 42
-0.4142135622005173
 10
-678.688735100604
 20
-144.4490502615517
 10
-690.688735100598
 20
-144.449038799651
 42
-0.4142135750147722
 10
-691.68873414488
 20
-143.4490378002636
 10
-691.6887226828976
 20
-131.4490378444496
 42
-0.4142135623726164
 10
-690.6887217272521
 20
-130.4490387996577
  0
LWPOLYLINE
  5
179
330
1F
100
AcDbEntity
  8
0
100
AcDbPolyline
 90
        8
 70
     1
 43
0.0
 10
-796.7512159486481
 20
-124.3989496949515
 10
-796.751204486197
 20
-112.3989496513371
 42
0.4142135495967792
 10
-797.751203530948
 20
-111.3989487397501
 10
-809.751203530503
 20
-111.398937277259
 42
0.4142135623735165
 10
-810.7512044861499
 20
-112.3989363220507
 10
-810.7512159481625
 20
-124.3989362779048
 42
0.4142135750205839
 10
-809.7512169038498
 20
-125.398937277252
 10
-797.7512169038549
 20
-125.3989487392227
 42
0.4142135622205585
  0
LWPOLYLINE
  5
180
330
1F
100
AcDbEntity
  8
0
100
AcDbPolyline
 90
        8
 70
     1
 43
0.0
 10
-771.651218571987
 20
-101.5864736702398
 42
-0.4142135750022075
 10
-772.6512176163689
 20
-100.5864726715033
 10
-772.6512061539765
 20
-88.58647271544866
 42
-0.4142135623731003
 10
-771.6512051987698
 20
-87.58647367065604
 10
-759.6512051990838
 20
-87.58648513303837
 42
-0.4142135495790011
 10
-758.6512061544039
 20
-88.58648604467481
 10
-758.6512176167848
 20
-100.5864860883496
 42
-0.4142135622205118
 10
-759.6512185719908
 20
-101.5864851326209
  0
LWPOLYLINE
  5
181
330
1F
100
AcDbEntity
  8
0
100
AcDbPolyline
 90
        8
 70
     1
 43
0.0
 10
-772.6512288998576
 20
-112.3989727154374
 42
-0.4142135623731003
 10
-771.6512279446511
 20
-111.3989736706449
 10
-759.6512279449658
 20
-111.3989851330271
 42
-0.4142135495792612
 10
-758.6512289002845
 20
-112.3989860446635
 10
-758.6512403626656
 20
-124.3989860883384
 42
-0.4142135622208136
 10
-759.651241317873
 20
-125.39898513261
 10
-771.6512413178668
 20
-125.3989736702193
 42
-0.4142135750376491
 10
-772.6512403622389
 20
-124.3989726713522
  0
LWPOLYLINE
  5
182
330
1F
100
AcDbEntity
  8
0
100
AcDbPolyline
 90
        8
 70
     1
 43
0.0
 10
-769.1762400376559
 20
-130.4489638277816
 42
-0.4142135494303875
 10
-768.1762409934834
 20
-131.4489647387991
 10
-768.1762524553552
 20
-143.4489647829837
 42
-0.4142135622031343
 10
-769.176253410563
 20
-144.4489638271951
 10
-781.1762534105571
 20
-144.4489523652836
 42
-0.4142135751749309
 10
-782.1762524553876
 20
-143.4489513664468
 10
-782.176240992857
 20
-131.4489514100819
 42
-0.4142135623729598
 10
-781.176240038311
 20
-130.4489523652901
  0
LWPOLYLINE
  5
183
330
1F
100
AcDbEntity
  8
0
100
AcDbPolyline
 90
        8
 70
     1
 43
0.0
 10
-814.5137655042651
 20
-163.4989388311174
 42
-0.4142135751837393
 10
-815.5137645491256
 20
-162.4989378322402
 10
-815.5137530861953
 20
-150.498937875845
 42
-0.4142135623731106
 10
-814.513752130988
 20
-149.4989388310538
 10
-802.5137521313638
 20
-149.4989502939845
 42
-0.4142135497406322
 10
-801.5137530861325
 20
-150.4989512056221
 10
-801.5137645490627
 20
-162.4989512487458
 42
-0.4142135625227388
 10
-802.5137655042701
 20
-163.4989502940478
  0
LWPOLYLINE
  5
184
330
1F
100
AcDbEntity
  8
0
100
AcDbPolyline
 90
        8
 70
     1
 43
0.0
 10
-783.4637643383709
 20
-149.4989684906488
 42
-0.4142135497312775
 10
-782.4637652931709
 20
-150.4989694022853
 10
-782.4637767560716
 20
-162.4989694454403
 42
-0.4142135625224058
 10
-783.4637777112781
 20
-163.4989684907424
 10
-795.4637777112732
 20
-163.4989570278409
 42
-0.4142135751521165
 10
-796.4637767561645
 20
-162.4989560291029
 10
-796.4637652932633
 20
-150.4989560725383
 42
-0.4142135623733916
 10
-795.4637643380549
 20
-149.4989570277471
  0
LWPOLYLINE
  5
185
330
1F
100
AcDbEntity
  8
0
100
AcDbPolyline
 90
        8
 70
     1
 43
0.0
 10
-864.4262400376131
 20
-130.4488728436362
 10
-876.4262400382671
 20
-130.448861381764
 42
0.4142135623728453
 10
-877.4262409934738
 20
-131.4488604265563
 10
-877.4262524553456
 20
-143.4488603820609
 42
0.4142135754246979
 10
-876.4262534105119
 20
-144.448861381788
 10
-864.4262534105189
 20
-144.4488728436694
 42
0.414213562203129
 10
-863.4262524553122
 20
-143.4488737994572
 10
-863.4262409934407
 20
-131.4488737552736
 42
0.4142135494307257
  0
LWPOLYLINE
  5
186
330
1F
100
AcDbEntity
  8
0
100
AcDbPolyline
 90
        8
 70
     1
 43
0.0
 10
-876.4262124679392
 20
-101.5863735888473
 42
-0.4142135754331786
 10
-877.4262115127902
 20
-100.5863725891103
 10
-877.4262000508995
 20
-88.58637263357547
 42
-0.4142135623730951
 10
-876.4261990956921
 20
-87.58637358878404
 10
-864.4261990950381
 20
-87.58638505068509
 42
-0.414213549439019
 10
-863.4262000508353
 20
-88.58638596232195
 10
-863.4262115127368
 20
-100.5863860064774
 42
-0.4142135622208031
 10
-864.4262124679439
 20
-101.5863850507487
  0
LWPOLYLINE
  5
187
330
1F
100
AcDbEntity
  8
0
100
AcDbPolyline
 90
        8
 70
     1
 43
0.0
 10
-697.7388251457981
 20
-187.5990259616508
 10
-709.7387641102931
 20
-187.5990144989374
 42
0.4142135623728453
 10
-710.7387650655001
 20
-188.5990135437296
 10
-710.7387765284316
 20
-200.599013500004
 42
0.4142135751430844
 10
-709.7387774837
 20
-201.5990144988716
 10
-697.7388385187049
 20
-201.5990259617441
 42
0.4142135624843835
 10
-696.7388375634981
 20
-200.599026916573
 10
-696.738826100725
 20
-188.5990268729879
 42
0.4142135496058945
  0
LWPOLYLINE
  5
188
330
1F
100
AcDbEntity
  8
0
100
AcDbPolyline
 90
        8
 70
     1
 43
0.0
 10
-859.663746027337
 20
-149.4988957033957
 10
-871.6637460279219
 20
-149.4988842409443
 42
0.4142135623731055
 10
-872.6637469831292
 20
-150.4988832857355
 10
-872.6637584455806
 20
-162.4988832427594
 42
0.4142135752839978
 10
-871.6637594002387
 20
-163.4988842414971
 10
-859.6637594002441
 20
-163.4988957039381
 42
0.4142135625227388
 10
-858.663758445037
 20
-162.4988966586373
 10
-858.6637469825848
 20
-150.498896615022
 42
0.4142135495974399
  0
LWPOLYLINE
  5
189
330
1F
100
AcDbEntity
  8
0
100
AcDbPolyline
 90
        8
 70
     1
 43
0.0
 10
-873.9512157379142
 20
-111.3988759528482
 42
-0.4142135495877576
 10
-872.9512166931938
 20
-112.3988768644748
 10
-872.9512281556145
 20
-124.3988769081203
 42
-0.4142135622202776
 10
-873.951229110821
 20
-125.3988759523909
 10
-885.951229110816
 20
-125.3988644899702
 42
-0.4142135750288719
 10
-886.9512281551568
 20
-124.3988634911019
 10
-886.9512166927462
 20
-112.3988635352185
 42
-0.4142135623730898
 10
-885.95121573754
 20
-111.3988644904261
  0
LWPOLYLINE
  5
190
330
1F
100
AcDbEntity
  8
0
100
AcDbPolyline
 90
        8
 70
     1
 43
0.0
 10
-974.9836173279932
 20
-153.6378940460176
 42
-0.4142135623733553
 10
-973.9836182832007
 20
-154.6378950012251
 10
-973.9836219129891
 20
-158.4378950019726
 42
-0.4142135624780205
 10
-974.9836228685538
 20
-159.4378940467653
 10
-976.3836228693319
 20
-159.4378927089745
 42
-0.4142135623195527
 10
-977.3836219137676
 20
-158.4378917535937
 10
-977.3836182833203
 20
-154.637891753345
 42
-0.4142135623223675
 10
-976.3836173281129
 20
-153.6378927087269
  0
LWPOLYLINE
  5
191
330
1F
100
AcDbEntity
  8
0
100
AcDbPolyline
 90
        8
 70
     1
 43
0.0
 10
-658.638746352405
 20
-143.449069414043
 42
-0.4142135622034152
 10
-659.638747307613
 20
-144.4490684582555
 10
-671.6387473076069
 20
-144.4490569958642
 42
-0.4142135749793671
 10
-672.6387463519186
 20
-143.4490559971362
 10
-672.6387348895376
 20
-131.4490560411419
 42
-0.4142135623728089
 10
-671.638733934331
 20
-130.4490569963504
 10
-659.6387339347061
 20
-130.4490684587312
 42
-0.4142135495828356
 10
-658.6387348900143
 20
-131.4490693703701
  0
LWPOLYLINE
  5
192
330
1F
100
AcDbEntity
  8
0
100
AcDbPolyline
 90
        8
 70
     1
 43
0.0
 10
-852.6137716072462
 20
-163.4989024382217
 10
-840.613771607253
 20
-163.4989139006317
 42
0.4142135625227284
 10
-839.6137706520459
 20
-162.4989148553309
 10
-839.6137591896241
 20
-150.4989148116862
 42
0.4142135495883818
 10
-840.6137582343461
 20
-149.4989139000589
 10
-852.6137582349999
 20
-149.4989024376375
 42
0.4142135623733812
 10
-853.6137591902081
 20
-150.4989014824298
 10
-853.6137706526199
 20
-162.4989014389531
 42
0.4142135754485529
  0
LWPOLYLINE
  5
193
330
1F
100
AcDbEntity
  8
0
100
AcDbPolyline
 90
        8
 70
     1
 43
0.0
 10
-659.63869299213
 20
-87.58658066579174
 42
-0.4142135495000898
 10
-658.6386939474095
 20
-88.58658157711927
 10
-658.6387054098304
 20
-100.586581621063
 42
-0.4142135622205533
 10
-659.638706365037
 20
-101.5865806653345
 10
-671.6387063650318
 20
-101.5865692029233
 42
-0.4142135749910578
 10
-672.6387054093744
 20
-100.5865682041867
 10
-672.6386939469612
 20
-88.58656824816227
 42
-0.4142135623728401
 10
-671.6386929917559
 20
-87.58656920336989
  0
LWPOLYLINE
  5
194
330
1F
100
AcDbEntity
  8
0
100
AcDbPolyline
 90
        8
 70
     1
 43
0.0
 10
-749.1262341453634
 20
-143.4489829797063
 42
-0.4142135622034152
 10
-750.1262351005721
 20
-144.4489820239178
 10
-762.126235100565
 20
-144.4489705614957
 42
-0.4142135750141635
 10
-763.1262341448468
 20
-143.4489695626184
 10
-763.1262226824269
 20
-131.4489696068045
 42
-0.4142135623731003
 10
-762.1262217272191
 20
-130.4489705620127
 10
-750.1262217276649
 20
-130.4489820244338
 42
-0.4142135495883818
 10
-749.1262226829429
 20
-131.4489829360618
  0
LWPOLYLINE
  5
195
330
1F
100
AcDbEntity
  8
0
100
AcDbPolyline
 90
        8
 70
     1
 43
0.0
 10
-671.6387291109129
 20
-125.399069202903
 10
-659.6387291109192
 20
-125.3990806653241
 42
0.4142135622208863
 10
-658.6387281557109
 20
-124.3990816210528
 10
-658.6387166932905
 20
-112.3990815774072
 42
0.4142135495880072
 10
-659.638715738012
 20
-111.399080665781
 10
-671.638715737636
 20
-111.399069203359
 42
0.4142135623736726
 10
-672.638716692843
 20
-112.3990682481509
 10
-672.6387281552556
 20
-124.3990682041764
 42
0.4142135749878581
  0
LWPOLYLINE
  5
196
330
1F
100
AcDbEntity
  8
0
100
AcDbPolyline
 90
        8
 70
     1
 43
0.0
 10
-740.5885220930938
 20
-87.58650334132845
 42
-0.4142135494243678
 10
-739.5885230489432
 20
-88.58650425296573
 10
-739.5885345107934
 20
-100.5865042971694
 42
-0.414213562221136
 10
-740.5885354660009
 20
-101.5865033414421
 10
-752.588535465995
 20
-101.5864918795899
 42
-0.4142135754507433
 10
-753.5885345109072
 20
-100.5864908798537
 10
-753.5885230490463
 20
-88.58649092426846
 42
-0.414213562373683
 10
-752.5885220938381
 20
-87.58649187947638
  0
LWPOLYLINE
  5
197
330
1F
100
AcDbEntity
  8
0
100
AcDbPolyline
 90
        8
 70
     1
 43
0.0
 10
-929.8137408790735
 20
-150.498828695626
 42
-0.4142135623736778
 10
-928.813739923865
 20
-149.4988296508338
 10
-916.8137399243102
 20
-149.498841113795
 42
-0.4142135497494042
 10
-915.8137408790487
 20
-150.4988420254324
 10
-915.8137523420103
 20
-162.4988420685278
 42
-0.4142135625221144
 10
-916.8137532972171
 20
-163.4988411138293
 10
-928.813753297212
 20
-163.4988296508666
 42
-0.4142135751284228
 10
-929.8137523420338
 20
-162.4988286521411
  0
LWPOLYLINE
  5
198
330
1F
100
AcDbEntity
  8
0
100
AcDbPolyline
 90
        8
 70
     1
 43
0.0
 10
-949.1512403625796
 20
-124.3988041212873
 42
-0.4142135622178687
 10
-950.1512413177859
 20
-125.3988031655495
 10
-962.1512413177811
 20
-125.398791703168
 42
-0.4142135750378677
 10
-963.1512403621536
 20
-124.3987907043011
 10
-963.1512288997711
 20
-112.3987907483865
 42
-0.4142135623728401
 10
-962.1512279445651
 20
-111.3987917035952
 10
-950.1512279448792
 20
-111.3988031659757
 42
-0.4142135495792924
 10
-949.1512289001983
 20
-112.3988040776135
  0
LWPOLYLINE
  5
199
330
1F
100
AcDbEntity
  8
0
100
AcDbPolyline
 90
        8
 70
     1
 43
0.0
 10
-691.688759075875
 20
-169.5490439474309
 10
-691.6887705388059
 20
-181.5490439039067
 42
0.4142135751196198
 10
-690.688771494014
 20
-182.5490449026333
 10
-678.6887714940199
 20
-182.5490563655748
 42
0.4142135625052781
 10
-677.6887705388121
 20
-181.5490573203317
 10
-677.6887590758803
 20
-169.5490572772081
 42
0.414213549740679
 10
-678.688758121113
 20
-168.5490563655717
 10
-690.6887581206681
 20
-168.5490449026403
 42
0.4142135623725333
  0
LWPOLYLINE
  5
200
330
1F
100
AcDbEntity
  8
0
100
AcDbPolyline
 90
        8
 70
     1
 43
0.0
 10
-659.638788524814
 20
-187.599062355195
 42
-0.4142135497224795
 10
-658.638789479644
 20
-188.599063266833
 10
-658.6388009425149
 20
-200.5990633100183
 42
-0.4142135624840818
 10
-659.638801897721
 20
-201.5990623551893
 10
-671.638801897717
 20
-201.5990508923283
 42
-0.4142135751228663
 10
-672.6388009425085
 20
-200.5990498935902
 10
-672.638789479646
 20
-188.5990499371164
 42
-0.4142135623731055
 10
-671.6387885244399
 20
-187.5990508923243
  0
LWPOLYLINE
  5
201
330
1F
100
AcDbEntity
  8
0
100
AcDbPolyline
 90
        8
 70
     1
 43
0.0
 10
-677.6887887355059
 20
-200.5990451133249
 10
-677.6887772726049
 20
-188.5990450701689
 42
0.4142135497309809
 10
-678.688776317806
 20
-187.5990441585325
 10
-690.6887763173609
 20
-187.5990326956316
 42
0.4142135623731262
 10
-691.688777272567
 20
-188.599031740423
 10
-691.6887887354683
 20
-200.599031696788
 42
0.414213575136789
 10
-690.688789690708
 20
-201.5990326956042
 10
-678.688789690713
 20
-201.5990441584954
 42
0.41421356248378
  0
LWPOLYLINE
  5
202
330
1F
100
AcDbEntity
  8
0
100
AcDbPolyline
 90
        8
 70
     1
 43
0.0
 10
-866.9012413178251
 20
-125.3988826871131
 42
-0.4142135749993979
 10
-867.9012403621966
 20
-124.3988816879667
 10
-867.9012289001244
 20
-112.398881731912
 42
-0.4142135623733448
 10
-866.901227944607
 20
-111.3988826871196
 10
-854.9012279449241
 20
-111.3988941496115
 42
-0.4142135495824141
 10
-853.9012289002313
 20
-112.3988950611381
 10
-853.9012403626225
 20
-124.3988951048129
 42
-0.4142135622210736
 10
-854.9012413178299
 20
-125.3988941490856
  0
LWPOLYLINE
  5
203
330
1F
100
AcDbEntity
  8
0
100
AcDbPolyline
 90
        8
 70
     1
 43
0.0
 10
-800.2262412035479
 20
-144.4489341685898
 10
-788.226241203553
 20
-144.4489456305022
 42
0.414213562202796
 10
-787.226240248347
 20
-143.4489465862893
 10
-787.2262287864445
 20
-131.4489465421349
 42
0.4142135494389566
 10
-788.226227830647
 20
-130.4489456304985
 10
-800.226227831232
 20
-130.4489341685966
 42
0.4142135623728089
 10
-801.2262287864389
 20
-131.4489332133884
 10
-801.2262402483408
 20
-143.4489331698623
 42
0.4142135751201815
  0
LWPOLYLINE
  5
204
330
1F
100
AcDbEntity
  8
0
100
AcDbPolyline
 90
        8
 70
     1
 43
0.0
 10
-890.7137777112291
 20
-163.4988660443151
 42
-0.414213575149484
 10
-891.7137767561213
 20
-162.4988650455875
 10
-891.7137652932208
 20
-150.4988650890129
 42
-0.4142135623730951
 10
-890.7137643380131
 20
-149.4988660442212
 10
-878.7137643383291
 20
-149.4988775071233
 42
-0.4142135497312723
 10
-877.7137652931276
 20
-150.4988784187588
 10
-877.7137767560272
 20
-162.4988784619147
 42
-0.4142135625224578
 10
-878.713777711235
 20
-163.4988775072162
  0
LWPOLYLINE
  5
205
330
1F
100
AcDbEntity
  8
0
100
AcDbPolyline
 90
        8
 70
     1
 43
0.0
 10
-778.701215737958
 20
-111.398966936374
 10
-790.701215737582
 20
-111.3989554739519
 42
0.4142135623725176
 10
-791.701216692789
 20
-112.3989545187431
 10
-791.7012281552112
 20
-124.3989544746285
 42
0.4142135750320717
 10
-790.7012291108591
 20
-125.3989554734951
 10
-778.7012291108651
 20
-125.3989669359166
 42
0.4142135622205637
 10
-777.701228155657
 20
-124.3989678916459
 10
-777.7012166932361
 20
-112.3989678480013
 42
0.4142135495883402
  0
LWPOLYLINE
  5
206
330
1F
100
AcDbEntity
  8
0
100
AcDbPolyline
 90
        8
 70
     1
 43
0.0
 10
-790.7012063649779
 20
-101.5864554735063
 10
-778.701206364983
 20
-101.5864669359275
 42
0.4142135622208393
 10
-777.701205409776
 20
-100.5864678916562
 10
-777.7011939473546
 20
-88.58646784801155
 42
0.4142135495882985
 10
-778.7011929920759
 20
-87.58646693638437
 10
-790.7011929917021
 20
-87.58645547396262
 42
0.4142135623728401
 10
-791.7011939469091
 20
-88.58645451875426
 10
-791.7012054093295
 20
-100.5864544746398
 42
0.4142135750314213
  0
LWPOLYLINE
  5
207
330
1F
100
AcDbEntity
  8
0
100
AcDbPolyline
 90
       14
 70
     1
 43
0.0
 10
-808.3713212828669
 20
-188.5996801770743
 10
-808.3713327457569
 20
-200.5996801335884
 42
0.4142135751290265
 10
-807.3713337009351
 20
-201.599681132315
 10
-795.371333700942
 20
-201.5996925952165
 42
0.4142135625044248
 10
-794.3713327457349
 20
-200.5996935499752
 10
-794.3713212828336
 20
-188.5996935068204
 42
0.4142135497316574
 10
-795.3713203280349
 20
-187.5996925951828
 10
-800.2512273926759
 20
-187.5989286342237
 10
-800.2512265310699
 20
-186.524982696627
 42
0.4142135624170173
 10
-801.251225576011
 20
-185.52498174142
 10
-806.2455952504159
 20
-185.5248760098736
 42
0.4142135625050181
 10
-807.2455962056233
 20
-186.5248750551165
 10
-807.2452635361338
 20
-187.5996811322821
 10
-807.3713203276588
 20
-187.599681132282
 42
0.4142135623737401
  0
LWPOLYLINE
  5
208
330
1F
100
AcDbEntity
  8
0
100
AcDbPolyline
 90
        8
 70
     1
 43
0.0
 10
-853.901332745735
 20
-200.5996935499752
 10
-853.9013212828342
 20
-188.5996935068203
 42
0.4142135497316053
 10
-854.9013203280351
 20
-187.5996925951828
 10
-878.8073203276599
 20
-187.5996811322819
 42
0.4142135623728245
 10
-879.807321282866
 20
-188.5996801770743
 10
-879.8073327457574
 20
-200.5996801335884
 42
0.4142135751284021
 10
-878.8073337009359
 20
-201.599681132315
 10
-854.9013337009421
 20
-201.5996925952172
 42
0.4142135625052886
  0
LWPOLYLINE
  5
209
330
1F
100
AcDbEntity
  8
0
100
AcDbPolyline
 90
       21
 70
     1
 43
0.0
 10
-966.906988720884
 20
-183.5296455231724
 10
-966.906988720884
 20
-182.5296455451722
 10
-964.4387315798839
 20
-182.5296455451718
 42
0.5547033455727274
 10
-963.4387315798839
 20
-181.5296455451729
 10
-963.4387315798843
 20
-169.5296455455828
 42
0.5531397018853924
 10
-964.4387315798839
 20
-168.5296455451724
 10
-997.868731579884
 20
-168.5296455451724
 42
0.5556346430096382
 10
-998.868731579884
 20
-169.5296455451727
 10
-998.8687315798838
 20
-181.5296455233514
 42
0.5556056708393477
 10
-997.868731579884
 20
-182.5296455231722
 10
-997.7829652828832
 20
-182.5296455231722
 10
-997.7829652828832
 20
-183.5296455233516
 42
0.4142135623205986
 10
-996.7829652828829
 20
-184.5296455231726
 10
-991.782965282884
 20
-184.5296455231732
 42
0.414213559151566
 10
-990.7829652828841
 20
-183.5296455341724
 10
-990.7829652828841
 20
-182.5373962261717
 10
-990.7829351748841
 20
-182.5296424661728
 10
-973.906988720884
 20
-182.5296455231722
 10
-973.906988720884
 20
-183.5296455233516
 42
0.4142135623205986
 10
-972.906988720884
 20
-184.5296455231726
 10
-967.9069887208841
 20
-184.5296455231724
 42
0.4142135623730951
  0
LWPOLYLINE
  5
210
330
1F
100
AcDbEntity
  8
0
100
AcDbPolyline
 90
       21
 70
     1
 43
0.0
 10
-753.6012437868838
 20
-112.3796516481727
 10
-753.6012437868838
 20
-124.379651648172
 42
0.4142135623730951
 10
-752.6012437868838
 20
-125.3796516481721
 10
-752.5142198608839
 20
-125.3796516481721
 10
-752.5142198608839
 20
-126.3796516483517
 42
0.4142135623208377
 10
-751.5142198608839
 20
-127.3796516481725
 10
-746.5142198608839
 20
-127.3796516481724
 42
0.4142135623727984
 10
-745.514219860884
 20
-126.3796516481733
 10
-745.514219860884
 20
-125.3874023521731
 10
-745.5141897768839
 20
-125.3796516481721
 10
-728.6382432988839
 20
-125.3796516481721
 10
-728.6382432988839
 20
-126.3796516483517
 42
0.4142135623208377
 10
-727.6382432988839
 20
-127.3796516481725
 10
-722.6382432988839
 20
-127.3796516481731
 42
0.4142135623730951
 10
-721.6382432988841
 20
-126.3796516481733
 10
-721.6382432988841
 20
-125.3796516481721
 10
-721.551243786884
 20
-125.379651648172
 42
0.4142135623730951
 10
-720.551243786884
 20
-124.379651648172
 10
-720.551243786884
 20
-112.3796516481727
 42
0.4142135623730951
 10
-721.551243786884
 20
-111.3796516481725
 10
-752.6012437868838
 20
-111.3796516481729
 42
0.4142135623730951
  0
LWPOLYLINE
  5
211
330
1F
100
AcDbEntity
  8
0
100
AcDbPolyline
 90
        8
 70
     1
 43
0.0
 10
-980.4889625609249
 20
-131.4297185702803
 42
-0.4142135623730951
 10
-979.4889625609247
 20
-130.4297185702802
 10
-975.6755031629241
 20
-130.4297185702805
 42
-0.4142135623730951
 10
-974.6755031629241
 20
-131.4297185702803
 10
-974.6755031629245
 20
-143.4297185702795
 42
-0.4142135623730951
 10
-975.6755031629241
 20
-144.4297185702792
 10
-979.4889625609247
 20
-144.4297185702795
 42
-0.4142135623730951
 10
-980.4889625609247
 20
-143.4297185702795
  0
LWPOLYLINE
  5
212
330
1F
100
AcDbEntity
  8
0
100
AcDbPolyline
 90
        8
 70
     1
 43
0.0
 10
-1002.30146256093
 20
-131.4297185702803
 10
-1002.30146256093
 20
-143.4297185702795
 42
0.4142135623733865
 10
-1001.30146256093
 20
-144.4297185702797
 10
-999.4880031629241
 20
-144.4297185702794
 42
0.4142135623730951
 10
-998.4880031629241
 20
-143.4297185702795
 10
-998.4880031629241
 20
-131.4297185702803
 42
0.4142135623730951
 10
-999.4880031629241
 20
-130.4297185702801
 10
-1001.30146256093
 20
-130.4297185702798
 42
0.4142135623733916
  0
LWPOLYLINE
  5
213
330
1F
100
AcDbEntity
  8
0
100
AcDbPolyline
 90
        8
 70
     1
 43
0.0
 10
-747.126344018404
 20
-131.4297185702803
 42
-0.4142135623730951
 10
-746.126344018404
 20
-130.4297185702802
 10
-742.3137193728839
 20
-130.429639420262
 42
-0.4142135623730951
 10
-741.313719372884
 20
-131.429639420262
 10
-741.3137193728839
 20
-143.4296394202622
 42
-0.4142135623730951
 10
-742.3137193728839
 20
-144.4296394202623
 10
-746.126344018404
 20
-144.4297185702795
 42
-0.4142135623730951
 10
-747.1263440184039
 20
-143.4297185702795
  0
LWPOLYLINE
  5
214
330
1F
100
AcDbEntity
  8
0
100
AcDbPolyline
 90
       30
 70
     1
 43
0.0
 10
-722.9637254758844
 20
-137.516690426172
 42
-0.4142135625901153
 10
-723.963725476625
 20
-138.5166904261718
 10
-725.3137193728839
 20
-138.5166904251727
 10
-725.3137193728839
 20
-139.9546485751722
 10
-723.9637265229348
 20
-139.9546485751726
 42
-0.4137897799510327
 10
-722.9637275699846
 20
-140.9532014752292
 10
-722.9325787419845
 20
-162.4781801342298
 42
-0.4146372043726765
 10
-723.9325767820738
 20
-163.479627234173
 10
-757.363724563023
 20
-163.4796577521712
 42
-0.4142138297439079
 10
-758.3637254758839
 20
-162.4796577521718
 10
-758.3637254758839
 20
-150.4796577301726
 42
-0.4142135623730951
 10
-757.3637254758839
 20
-149.4796577301728
 10
-754.8954759648842
 20
-149.4796577301724
 10
-754.8954759648839
 20
-148.4796577521732
 42
-0.4142135623730951
 10
-753.895475964884
 20
-147.4796577521732
 10
-751.3954756688839
 20
-147.479657752172
 10
-748.931066117883
 20
-147.4805945261726
 42
-0.4142180000504328
 10
-747.9310509668846
 20
-148.4805945303287
 10
-747.9310509658841
 20
-149.4796577301724
 10
-736.9637254758839
 20
-149.4796577301724
 10
-736.9637254758839
 20
-144.4296394201727
 10
-738.3137193728851
 20
-144.4296394201725
 42
-0.4142135623730951
 10
-739.3137193728846
 20
-143.4296394201726
 10
-739.313719372884
 20
-131.4296394201722
 42
-0.4142135623730951
 10
-738.3137193728839
 20
-130.4296394201722
 10
-726.313719372884
 20
-130.4296394201722
 42
-0.4142135623742814
 10
-725.3137193728839
 20
-131.4296394201763
 10
-725.3137193728839
 20
-131.5166602941724
 10
-723.9637254758839
 20
-131.5166602941718
 42
-0.4142135624931712
 10
-722.9637254758844
 20
-132.5166602945816
  0
LWPOLYLINE
  5
215
330
1F
100
AcDbEntity
  8
0
100
AcDbPolyline
 90
        8
 70
     1
 43
0.0
 10
-881.7928608103079
 20
-198.5996925914621
 10
-881.7928531683742
 20
-190.5996925914265
 42
0.4142137017150839
 10
-882.7928526888753
 20
-189.5996916361839
 10
-911.5877757298161
 20
-189.5996820912789
 42
0.4142134230317338
 10
-912.5877762093137
 20
-190.5996811360376
 10
-912.5877838512424
 20
-198.5996811360734
 42
0.4142138421567983
 10
-911.5877838512433
 20
-199.5996820913138
 10
-882.792861289807
 20
-199.5996916362198
 42
0.4142134230311615
  0
LWPOLYLINE
  5
216
330
1F
100
AcDbEntity
  8
0
100
AcDbPolyline
 90
        8
 70
     1
 43
0.0
 10
-828.268780030079
 20
-198.5996925914621
 10
-828.2687723881469
 20
-190.5996925914265
 42
0.4142137017153753
 10
-829.2687719086469
 20
-189.5996916361839
 10
-850.9016120508949
 20
-189.5996820912789
 42
0.4142134230314842
 10
-851.901612530394
 20
-190.5996811360376
 10
-851.9016201723195
 20
-198.5996811360734
 42
0.4142138421567983
 10
-850.9016201723198
 20
-199.5996820913138
 10
-829.2687805095788
 20
-199.5996916362198
 42
0.4142134230314112
  0
LWPOLYLINE
  5
217
330
1F
100
AcDbEntity
  8
0
100
AcDbPolyline
 90
       16
 70
     1
 43
0.0
 10
-660.1388833498661
 20
-148.4491114522112
 42
-0.4142135623730951
 10
-658.6388833498659
 20
-149.9491114522113
 10
-658.6388833498659
 20
-181.0491114522116
 42
-0.4142135623730951
 10
-660.1388833498661
 20
-182.5491114522117
 10
-671.138883349865
 20
-182.5491114522114
 42
-0.4142135623732894
 10
-672.6388833498657
 20
-181.0491114522116
 10
-672.6388833498661
 20
-166.0491114522118
 42
0.414213562372901
 10
-674.138883349866
 20
-164.5491114522127
 10
-695.2388833498662
 20
-164.5491114522114
 42
0.4142135623732894
 10
-696.738883349866
 20
-166.0491114522128
 10
-696.7388833498675
 20
-181.0491114522116
 42
-0.414213562372887
 10
-698.2388833498681
 20
-182.5491114522108
 10
-709.238883349866
 20
-182.5491114522104
 42
-0.4142135623730951
 10
-710.7388833498658
 20
-181.0491114522105
 10
-710.7388833498669
 20
-149.9491114522113
 42
-0.4142135623730951
 10
-709.2388833498668
 20
-148.4491114522112
  0
LWPOLYLINE
  5
218
330
1F
100
AcDbEntity
  8
0
100
AcDbPolyline
 90
        9
 70
     1
 43
0.0
 10
-914.5877895818941
 20
-200.600274274303
 10
-914.5877762093167
 20
-186.6002742745098
 42
0.4142135623144384
 10
-915.5877752539087
 20
-185.6002733193027
 10
-925.3447752539059
 20
-185.6002685435859
 42
0.4142135622202256
 10
-926.344776209113
 20
-186.6002675878565
 10
-926.3447771648413
 20
-187.6002666326487
 10
-926.3447771648406
 20
-200.600273319096
 42
0.4142135623730951
 10
-925.344777164841
 20
-201.6002733190952
 10
-915.5877905371001
 20
-201.6002733190951
 42
0.4142135623727829
  0
LWPOLYLINE
  5
219
330
1F
100
AcDbEntity
  8
0
100
AcDbPolyline
 90
        8
 70
     1
 43
0.0
 10
-1001.25119699833
 20
-88.58625435499472
 10
-1001.25120846099
 20
-100.5862543106393
 42
0.4142135749579522
 10
-1000.25120941689
 20
-101.586255309507
 10
-988.2512094168879
 20
-101.5862667721593
 42
0.4142135622178218
 10
-987.2512084616813
 20
-100.5862677278966
 10
-987.2511969990195
 20
-88.58626768350132
 42
0.4142135493682605
 10
-988.251196043981
 20
-87.58626677286446
 10
-1000.25119613112
 20
-87.5862553102034
 42
0.4142135365990726
  0
LWPOLYLINE
  5
220
330
1F
100
AcDbEntity
  8
0
100
AcDbPolyline
 90
        8
 70
     1
 43
0.0
 10
-826.3262339346301
 20
-130.448909237563
 10
-838.326233934255
 20
-130.4488977751801
 42
0.4142135623728089
 10
-839.3262348894621
 20
-131.4488968199724
 10
-839.326246351843
 20
-143.4488967758165
 42
0.4142135750229876
 10
-838.3262473075308
 20
-144.4488977746932
 10
-826.326247307537
 20
-144.4489092370855
 42
0.4142135622034256
 10
-825.3262463523299
 20
-143.4489101928733
 10
-825.3262348899479
 20
-131.4489101491994
 42
0.4142135495798804
  0
LWPOLYLINE
  5
221
330
1F
100
AcDbEntity
  8
0
100
AcDbPolyline
 90
        8
 70
     1
 43
0.0
 10
-839.3261939468859
 20
-88.58640902699162
 10
-839.3262054092978
 20
-100.586408982876
 42
0.4142135750291269
 10
-838.326206364956
 20
-101.5864099817435
 10
-826.3262063649609
 20
-101.5864214441647
 42
0.4142135622205065
 10
-825.3262054097541
 20
-100.5864223998934
 10
-825.3261939473336
 20
-88.58642235624875
 42
0.414213549588054
 10
-826.3261929920542
 20
-87.58642144462156
 10
-838.3261929916802
 20
-87.58640998220029
 42
0.4142135623730951
  0
LWPOLYLINE
  5
222
330
1F
100
AcDbEntity
  8
0
100
AcDbPolyline
 90
        8
 70
     1
 43
0.0
 10
-829.8012227968023
 20
-112.398918125328
 42
-0.414213562373683
 10
-828.8012218415939
 20
-111.3989190805358
 10
-816.8012218409401
 20
-111.3989305424365
 42
-0.4142135494389774
 10
-815.8012227967383
 20
-112.3989314540745
 10
-815.8012342586404
 20
-124.3989314982288
 42
-0.4142135622205689
 10
-816.801235213847
 20
-125.3989305425005
 10
-828.8012352138421
 20
-125.3989190805893
 42
-0.4142135751775843
 10
-829.8012342586925
 20
-124.3989180817233
  0
LWPOLYLINE
  5
223
330
1F
100
AcDbEntity
  8
0
100
AcDbPolyline
 90
        8
 70
     1
 43
0.0
 10
-820.276206153955
 20
-88.586427223686
 10
-820.2762176163371
 20
-100.5864271797396
 42
0.4142135749998454
 10
-819.276218571964
 20
-101.5864281784772
 10
-807.2762185719691
 20
-101.5864396408593
 42
0.4142135622208393
 10
-806.276217616762
 20
-100.5864405965868
 10
-806.2762061543825
 20
-88.586440552912
 42
0.414213549579256
 10
-807.2762051990638
 20
-87.58643964127463
 10
-819.2762051987481
 20
-87.58642817889377
 42
0.41421356237335
  0
LWPOLYLINE
  5
224
330
1F
100
AcDbEntity
  8
0
100
AcDbPolyline
 90
        8
 70
     1
 43
0.0
 10
-834.563740879116
 20
-150.4989196791516
 10
-834.5637523420782
 20
-162.4989196356566
 42
0.4142135751310553
 10
-833.563753297256
 20
-163.4989206343933
 10
-821.5637532972611
 20
-163.4989320973547
 42
0.4142135625221041
 10
-820.5637523420541
 20
-162.4989330520534
 10
-820.5637408790925
 20
-150.498933008958
 42
0.4142135497494353
 10
-821.5637399243552
 20
-149.4989320973215
 10
-833.5637399239089
 20
-149.4989206343604
 42
0.4142135623731055
  0
LWPOLYLINE
  5
225
330
1F
100
AcDbEntity
  8
0
100
AcDbPolyline
 90
        8
 70
     1
 43
0.0
 10
-858.3761817402479
 20
-88.58639083029812
 10
-858.3761932022589
 20
-100.5863907862832
 42
0.4142135749821921
 10
-857.3761941579482
 20
-101.5863917855005
 10
-845.3761941579521
 20
-101.5864032474713
 42
0.4142135622208031
 10
-844.3761932027461
 20
-100.586404203199
 10
-844.3761817402947
 20
-88.58640415959472
 42
0.4142135495997605
 10
-845.3761807850462
 20
-87.58640324799767
 10
-857.3761807846011
 20
-87.58639178550716
 42
0.4142135623726113
  0
LWPOLYLINE
  5
226
330
1F
100
AcDbEntity
  8
0
100
AcDbPolyline
 90
        8
 70
     1
 43
0.0
 10
-824.0387775969519
 20
-182.5489175262118
 42
-0.414213575272843
 10
-825.0387766422655
 20
-181.548916527484
 10
-825.0387651798423
 20
-169.5489165704894
 42
-0.414213562372554
 10
-824.0387642246371
 20
-168.5489175256981
 10
-812.038764224053
 20
-168.5489289881192
 42
-0.4142135495886315
 10
-811.0387651793304
 20
-169.5489298997467
 10
-811.0387766417513
 20
-181.5489299433912
 42
-0.4142135625049451
 10
-812.0387775969591
 20
-182.5489289886334
  0
LWPOLYLINE
  5
227
330
1F
100
AcDbEntity
  8
0
100
AcDbPolyline
 90
        8
 70
     1
 43
0.0
 10
-738.3137380036978
 20
-201.5989994109002
 42
-0.4142135623701608
 10
-739.3137370484803
 20
-200.5989984556939
 10
-739.3137255855385
 20
-188.5989984557087
 42
-0.4142135623728037
 10
-738.3137246303313
 20
-187.5989994109182
 10
-723.9324897837849
 20
-187.5990009414824
 42
-0.4142135749905895
 10
-722.9324906514944
 20
-188.5990018522701
 10
-722.932502114486
 20
-200.5990018961849
 42
-0.4142135624875781
 10
-723.9325030696931
 20
-201.5990009413666
  0
LWPOLYLINE
  5
228
330
1F
100
AcDbEntity
  8
0
100
AcDbPolyline
 90
        8
 70
     1
 43
0.0
 10
-981.1049551832818
 20
-149.4987797021267
 10
-997.869999079384
 20
-149.4987636877701
 42
0.4142135623733553
 10
-998.8700000345911
 20
-150.4987627325613
 10
-998.8700114972825
 20
-162.4987626893353
 42
0.4142135752134162
 10
-997.8700124521809
 20
-163.498763688073
 10
-981.1049685561881
 20
-163.4987797023705
 42
0.4142135370407199
 10
-980.1049676879811
 20
-162.4987806570681
 10
-980.1049562252302
 20
-150.498780700683
 42
0.414213549664213
  0
LWPOLYLINE
  5
229
330
1F
100
AcDbEntity
  8
0
100
AcDbPolyline
 90
        8
 70
     1
 43
0.0
 10
-997.8700030695673
 20
-201.5987392736692
 10
-983.4887380035858
 20
-201.5987652183238
 42
0.4142135625020523
 10
-982.4887370483779
 20
-200.5987661730913
 10
-982.4887255854378
 20
-188.5987661735464
 42
0.4142135625045705
 10
-983.488724630679
 20
-187.5987652183394
 10
-997.8699896960401
 20
-187.5987392737964
 42
0.4142135623731784
 10
-998.8699906512479
 20
-188.5987383185868
 10
-998.8700021142394
 20
-200.5987382748017
 42
0.4142135751260815
  0
LWPOLYLINE
  5
230
330
1F
100
AcDbEntity
  8
0
100
AcDbPolyline
 90
        8
 70
     1
 43
0.0
 10
-772.9387705387694
 20
-181.5489663368064
 42
-0.4142135625050181
 10
-773.9387714939761
 20
-182.5489653820492
 10
-785.938771493971
 20
-182.5489539191076
 42
-0.4142135751225437
 10
-786.9387705387731
 20
-181.5489529203803
 10
-786.9387590758307
 20
-169.5489529639053
 42
-0.4142135623724708
 10
-785.9387581206239
 20
-168.5489539191147
 10
-773.9387581210692
 20
-168.5489653820448
 42
-0.414213549740627
 10
-772.9387590758375
 20
-169.5489662936825
  0
LWPOLYLINE
  5
231
330
1F
100
AcDbEntity
  8
0
100
AcDbPolyline
 90
        8
 70
     1
 43
0.0
 10
-883.476227830604
 20
-130.4488546475621
 42
-0.4142135494391803
 10
-882.4762287864018
 20
-131.4488555586093
 10
-882.4762402483024
 20
-143.4488556027638
 42
-0.4142135622030822
 10
-883.4762412035098
 20
-144.4488546469753
 10
-895.4762412035041
 20
-144.4488431850647
 42
-0.4142135751231473
 10
-896.4762402483064
 20
-143.4488421863368
 10
-896.4762287858052
 20
-131.4488422298629
 42
-0.4142135623728766
 10
-895.4762278311891
 20
-130.4488431850715
  0
LWPOLYLINE
  5
232
330
1F
100
AcDbEntity
  8
0
100
AcDbPolyline
 90
        8
 70
     1
 43
0.0
 10
-935.8635246306787
 20
-187.59876521834
 42
-0.4142135625045705
 10
-934.8635255854373
 20
-188.5987661735464
 10
-934.8635370483785
 20
-200.5987661730913
 42
-0.4142135625017194
 10
-935.8635380035847
 20
-201.598765218323
 10
-950.2448030695678
 20
-201.5987392736693
 42
-0.4142135751260815
 10
-951.2448021142404
 20
-200.5987382748017
 10
-951.2447906512482
 20
-188.5987383185868
 42
-0.4142135623731262
 10
-950.244789696041
 20
-187.5987392737956
  0
LWPOLYLINE
  5
233
330
1F
100
AcDbEntity
  8
0
100
AcDbPolyline
 90
        8
 70
     1
 43
0.0
 10
-958.6762370483793
 20
-200.5987661730913
 10
-958.6762255854379
 20
-188.5987661735464
 42
0.4142135625045705
 10
-959.6762246306793
 20
-187.5987652183394
 10
-974.0574896960412
 20
-187.5987392737961
 42
0.4142135623728453
 10
-975.0574906512481
 20
-188.5987383185868
 10
-975.0575021142397
 20
-200.5987382748017
 42
0.4142135751260815
 10
-974.0575030695669
 20
-201.5987392736692
 10
-959.6762380035858
 20
-201.5987652183229
 42
0.4142135625023438
  0
LWPOLYLINE
  5
234
330
1F
100
AcDbEntity
  8
0
100
AcDbPolyline
 90
        8
 70
     1
 43
0.0
 10
-770.5575370483779
 20
-200.5987661730913
 10
-770.557525585437
 20
-188.5987661735464
 42
0.4142135625042793
 10
-771.5575246306781
 20
-187.5987652183394
 10
-785.9387896960401
 20
-187.5987392737964
 42
0.4142135623730951
 10
-786.938790651248
 20
-188.5987383185868
 10
-786.9388021142396
 20
-200.5987382748017
 42
0.4142135751260815
 10
-785.9388030695669
 20
-201.5987392736692
 10
-771.5575380035861
 20
-201.598765218323
 42
0.4142135625020523
  0
LWPOLYLINE
  5
235
330
1F
100
AcDbEntity
  8
0
100
AcDbPolyline
 90
        9
 70
     1
 43
0.0
 10
-826.2687762091138
 20
-186.6002675878565
 10
-826.268777164841
 20
-187.6002666326487
 10
-826.268777164841
 20
-200.600273319095
 42
0.4142135623730951
 10
-825.268777164841
 20
-201.6002733190952
 10
-820.2687905371009
 20
-201.6002733190951
 42
0.4142135623731159
 10
-819.2687895818941
 20
-200.600274274303
 10
-819.2687762093152
 20
-186.6002742745098
 42
0.4142135623147713
 10
-820.2687752539091
 20
-185.6002733193027
 10
-825.2687752539058
 20
-185.6002685435858
 42
0.4142135622205585
  0
LWPOLYLINE
  5
236
330
1F
100
AcDbEntity
  8
0
100
AcDbPolyline
 90
        8
 70
     1
 43
0.0
 10
-746.7445370483784
 20
-200.5987661730913
 42
-0.414213562501761
 10
-747.744538003585
 20
-201.598765218323
 10
-762.1258030695669
 20
-201.5987392736695
 42
-0.4142135751257798
 10
-763.1258021142384
 20
-200.5987382748017
 10
-763.1257906512463
 20
-188.5987383185868
 42
-0.414213562372221
 10
-762.1257896960411
 20
-187.5987392737961
 10
-747.7445246306781
 20
-187.5987652183401
 42
-0.4142135625042793
 10
-746.7445255854376
 20
-188.5987661735464
  0
LWPOLYLINE
  5
237
330
1F
100
AcDbEntity
  8
0
100
AcDbPolyline
 90
        8
 70
     1
 43
0.0
 10
-792.9887764310609
 20
-168.5489471847734
 10
-804.988776431716
 20
-168.5489357223915
 42
0.4142135623722626
 10
-805.9887773869217
 20
-169.5489347671828
 10
-805.9887888493044
 20
-181.5489347236878
 42
0.4142135754329965
 10
-804.9887898039628
 20
-182.5489357229352
 10
-792.988789803968
 20
-182.5489471853264
 42
0.4142135625052886
 10
-791.9887888487601
 20
-181.5489481400837
 10
-791.9887773863798
 20
-169.5489480964098
 42
0.4142135495795891
  0
LWPOLYLINE
  5
238
330
1F
100
AcDbEntity
  8
0
100
AcDbPolyline
 90
        8
 70
     1
 43
0.0
 10
-830.0887949527432
 20
-181.5489117466685
 10
-830.0887834898718
 20
-169.5489117034834
 42
0.414213549722771
 10
-831.0887825350439
 20
-168.548910791846
 10
-843.088782534728
 20
-168.5488993289755
 42
0.4142135623730534
 10
-844.088783489936
 20
-169.5488983737667
 10
-844.0887949528065
 20
-181.5488983303112
 42
0.4142135751403998
 10
-843.0887959079448
 20
-182.5488993290386
 10
-831.0887959079501
 20
-182.5489107919106
 42
0.4142135625047058
  0
LWPOLYLINE
  5
239
330
1F
100
AcDbEntity
  8
0
100
AcDbPolyline
 90
        8
 70
     1
 43
0.0
 10
-869.1887581210261
 20
-168.5488743985191
 42
-0.4142135497403876
 10
-868.1887590757952
 20
-169.548875310157
 10
-868.1887705387252
 20
-181.5488753532818
 42
-0.4142135625050077
 10
-869.1887714939332
 20
-182.5488743985239
 10
-881.188771493927
 20
-182.5488629355811
 42
-0.4142135751195988
 10
-882.1887705387199
 20
-181.5488619368548
 10
-882.1887590757874
 20
-169.5488619803798
 42
-0.4142135623727726
 10
-881.1887581205811
 20
-168.5488629355885
  0
LWPOLYLINE
  5
240
330
1F
100
AcDbEntity
  8
0
100
AcDbPolyline
 90
        8
 70
     1
 43
0.0
 10
-968.2012281555719
 20
-124.3987859245938
 42
-0.4142135622175669
 10
-969.2012291107779
 20
-125.3987849688552
 10
-981.2012291107718
 20
-125.3987735064543
 42
-0.4142135749913856
 10
-982.2012281551144
 20
-124.3987725077164
 10
-982.2012166927024
 20
-112.398772551693
 42
-0.4142135623731003
 10
-981.201215737496
 20
-111.3987735069007
 10
-969.2012157378712
 20
-111.3987849693116
 42
-0.4142135495916128
 10
-968.2012166931484
 20
-112.3987858809493
  0
LWPOLYLINE
  5
241
330
1F
100
AcDbEntity
  8
0
100
AcDbPolyline
 90
        8
 70
     1
 43
0.0
 10
-906.0012044856673
 20
-112.3988453385252
 10
-906.0012159481193
 20
-124.3988452945194
 42
0.4142135749826085
 10
-905.0012169038067
 20
-125.398846293257
 10
-893.001216903813
 20
-125.3988577556984
 42
0.4142135622214378
 10
-892.0012159486061
 20
-124.398858711426
 10
-892.0012044861541
 20
-112.3988586678217
 42
0.4142135495998073
 10
-893.001203530906
 20
-111.3988577561843
 10
-905.0012035304609
 20
-111.3988462937337
 42
0.4142135623728713
  0
LWPOLYLINE
  5
242
330
1F
100
AcDbEntity
  8
0
100
AcDbPolyline
 90
        8
 70
     1
 43
0.0
 10
-850.1387703280354
 20
-168.5488925951839
 10
-862.1387703276591
 20
-168.548881132282
 42
0.4142135623737194
 10
-863.1387712828672
 20
-169.5488801770733
 10
-863.1387827457583
 20
-181.5488801335884
 42
0.4142135751287558
 10
-862.1387837009358
 20
-182.548881132315
 10
-850.1387837009421
 20
-182.5488925952162
 42
0.4142135625052989
 10
-849.1387827457332
 20
-181.5488935499741
 10
-849.1387712828336
 20
-169.5488935068202
 42
0.4142135497318967
  0
LWPOLYLINE
  5
243
330
1F
100
AcDbEntity
  8
0
100
AcDbPolyline
 90
        8
 70
     1
 43
0.0
 10
-983.4887400375587
 20
-130.448759114229
 42
-0.4142135494301638
 10
-982.4887409933865
 20
-131.4487600258657
 10
-982.4887524552561
 20
-143.4487600700503
 42
-0.4142135622004705
 10
-983.488753410465
 20
-144.4487591142516
 10
-995.4887534104582
 20
-144.4487476523808
 42
-0.4142135754220341
 10
-996.4887524552819
 20
-143.4487466526531
 10
-996.4887409934206
 20
-131.4487466971494
 42
-0.4142135623731003
 10
-995.4887400382132
 20
-130.4487476523562
  0
LWPOLYLINE
  5
244
330
1F
100
AcDbEntity
  8
0
100
AcDbPolyline
 90
        8
 70
     1
 43
0.0
 10
-924.0512352137979
 20
-125.3988280970734
 42
-0.4142135754364251
 10
-925.0512342586603
 20
-124.3988270973363
 10
-925.0512227967584
 20
-112.3988271418024
 42
-0.4142135623730951
 10
-924.0512218415519
 20
-111.39882809701
 10
-912.051221840897
 20
-111.3988395589112
 42
-0.4142135494392375
 10
-911.0512227966943
 20
-112.398840470549
 10
-911.0512342585964
 20
-124.3988405147034
 42
-0.4142135622208655
 10
-912.0512352138041
 20
-125.398839558975
  0
LWPOLYLINE
  5
245
330
1F
100
AcDbEntity
  8
0
100
AcDbPolyline
 90
        8
 70
     1
 43
0.0
 10
-944.1012105896801
 20
-112.398808945108
 10
-944.1012220516119
 20
-124.3988089014741
 42
0.414213575169468
 10
-943.1012230067901
 20
-125.3988099003407
 10
-931.1012230067937
 20
-125.3988213622815
 42
0.4142135622199862
 10
-930.1012220515881
 20
-124.3988223180109
 10
-930.1012105896568
 20
-112.3988222738847
 42
0.4142135494471874
 10
-931.101209633887
 20
-111.3988213622484
 10
-943.101209634473
 20
-111.3988099003175
 42
0.4142135623725176
  0
LWPOLYLINE
  5
255
330
1F
100
AcDbEntity
  8
0
100
AcDbPolyline
 90
        8
 70
     1
 43
0.0
 10
-939.6262341452768
 20
-143.4488010126544
 10
-939.6262226828572
 20
-131.4488009690098
 42
0.4142135495877576
 10
-940.626221727577
 20
-130.4488000573824
 10
-952.626221727132
 20
-130.4487885949608
 42
0.41421356237335
 10
-953.6262226823401
 20
-131.4487876397534
 10
-953.6262341447601
 20
-143.4487875957175
 42
0.4142135749705794
 10
-952.6262351004787
 20
-144.4487885944451
 10
-940.6262351004839
 20
-144.4488000568665
 42
0.4142135622034101
  0
LWPOLYLINE
  5
256
330
1F
100
AcDbEntity
  8
0
100
AcDbPolyline
 90
        8
 70
     1
 43
0.0
 10
-910.7637530861513
 20
-150.4988468923194
 10
-910.7637645490832
 20
-162.4988468487238
 42
0.4142135751816582
 10
-909.7637655042211
 20
-163.4988478475914
 10
-897.7637655042268
 20
-163.4988593105218
 42
0.4142135625223954
 10
-896.763764549019
 20
-162.4988602652203
 10
-896.7637530860878
 20
-150.4988602220966
 42
0.4142135497406478
 10
-897.7637521313198
 20
-149.4988593104593
 10
-909.7637521309453
 20
-149.4988478475278
 42
0.4142135623724708
  0
LWPOLYLINE
  5
257
330
1F
100
AcDbEntity
  8
0
100
AcDbPolyline
 90
        8
 70
     1
 43
0.0
 10
-915.5262470964872
 20
-131.4488240331403
 10
-915.5262585588381
 20
-143.4488239891657
 42
0.4142135749878581
 10
-914.5262595144959
 20
-144.4488249878923
 10
-902.526259514502
 20
-144.4488364502527
 42
0.4142135622031343
 10
-901.5262585592941
 20
-143.4488374060411
 10
-901.5262470969416
 20
-131.4488373623371
 42
0.4142135495714311
 10
-902.5262461415952
 20
-130.4488364507007
 10
-914.52624614128
 20
-130.4488249883479
 42
0.4142135623731003
  0
LWPOLYLINE
  5
258
330
1F
100
AcDbEntity
  8
0
100
AcDbPolyline
 90
        8
 70
     1
 43
0.0
 10
-954.9137460272941
 20
-149.4988047198697
 42
-0.4142135496001142
 10
-953.9137469825414
 20
-150.4988056315065
 10
-953.9137584449939
 20
-162.4988056751108
 42
-0.4142135625194402
 10
-954.9137594002003
 20
-163.4988047204027
 10
-966.9137594001949
 20
-163.4987932579612
 42
-0.4142135753244239
 10
-967.9137584455359
 20
-162.4987922590838
 10
-967.9137469830852
 20
-150.4987923022099
 42
-0.4142135623733916
 10
-966.9137460278781
 20
-149.4987932574177
  0
LWPOLYLINE
  5
259
330
1F
100
AcDbEntity
  8
0
100
AcDbPolyline
 90
        8
 70
     1
 43
0.0
 10
-972.6762409934307
 20
-131.4487694430308
 42
-0.4142135623730586
 10
-971.6762400382233
 20
-130.448770398239
 10
-959.6762400375688
 20
-130.4487818601096
 42
-0.4142135494305072
 10
-958.6762409933976
 20
-131.4487827717481
 10
-958.6762524552691
 20
-143.4487828159316
 42
-0.414213562203129
 10
-959.676253410476
 20
-144.4487818601441
 10
-971.6762534104701
 20
-144.4487703982621
 42
-0.4142135754216959
 10
-972.6762524552928
 20
-143.4487693985344
  0
LWPOLYLINE
  5
260
330
1F
100
AcDbEntity
  8
0
100
AcDbPolyline
 90
        8
 70
     1
 43
0.0
 10
-920.5762463522852
 20
-143.4488192093477
 42
-0.4142135622031239
 10
-921.576247307493
 20
-144.4488182535592
 10
-933.5762473074879
 20
-144.448806791168
 42
-0.4142135750230187
 10
-934.5762463517996
 20
-143.448805792291
 10
-934.5762348894167
 20
-131.4488058364459
 42
-0.4142135623722678
 10
-933.5762339342112
 20
-130.4488067916549
 10
-921.5762339345872
 20
-130.4488182540362
 42
-0.4142135495799272
 10
-920.5762348899042
 20
-131.4488191656739
  0
LWPOLYLINE
  5
261
330
1F
100
AcDbEntity
  8
0
100
AcDbPolyline
 90
        8
 70
     1
 43
0.0
 10
-935.8637429763021
 20
-149.4988229173268
 42
-0.4142135496556805
 10
-934.8637439307903
 20
-150.4988238283944
 10
-934.8637553940024
 20
-162.4988238718193
 42
-0.4142135625194298
 10
-935.863756349209
 20
-163.4988229171117
 10
-947.8637563492039
 20
-163.49881145392
 42
-0.4142135751046979
 10
-948.8637553937948
 20
-162.4988104550428
 10
-948.8637439305847
 20
-150.4988104989175
 42
-0.4142135623728401
 10
-947.8637429753771
 20
-149.4988114541268
  0
LWPOLYLINE
  5
262
330
1F
100
AcDbEntity
  8
0
100
AcDbPolyline
 90
        8
 70
     1
 43
0.0
 10
-950.151205198999
 20
-87.58630316598637
 10
-962.1512052866728
 20
-87.5862917036045
 42
0.4142135365985315
 10
-963.1512061538792
 20
-88.58629074839662
 10
-963.1512176162713
 20
-100.5862907043113
 42
0.4142135750379092
 10
-962.1512185719
 20
-101.5862917031789
 10
-950.151218571905
 20
-101.5863031655602
 42
0.4142135622176501
 10
-949.1512176166981
 20
-100.5863041212984
 10
-949.1512061543161
 20
-88.58630407762364
 42
0.4142135495795474
  0
LWPOLYLINE
  5
263
330
1F
100
AcDbEntity
  8
0
100
AcDbPolyline
 90
        8
 70
     1
 43
0.0
 10
-901.2387773868788
 20
-169.5488437836573
 10
-901.2387888492709
 20
-181.5488437401613
 42
0.4142135754362534
 10
-900.238789803919
 20
-182.5488447394087
 10
-888.238789803924
 20
-182.548856201801
 42
0.4142135625050077
 10
-887.2387888487171
 20
-181.5488571565581
 10
-887.2387773863364
 20
-169.5488571128843
 42
0.4142135495763321
 10
-888.238776431017
 20
-168.548856201258
 10
-900.238776431671
 20
-168.5488447388655
 42
0.4142135623733448
  0
LWPOLYLINE
  5
264
330
1F
100
AcDbEntity
  8
0
100
AcDbPolyline
 90
        8
 70
     1
 43
0.0
 10
-931.1011868880067
 20
-87.58632136281878
 42
-0.4142135494483061
 10
-930.1011878437741
 20
-88.58632227389604
 10
-930.1011993057064
 20
-100.5863223180202
 42
-0.414213562221136
 10
-931.1012002609139
 20
-101.5863213622929
 10
-943.101200260908
 20
-101.5863099003213
 42
-0.4142135751697126
 10
-944.1011993057308
 20
-100.5863089014843
 10
-944.1011878432092
 20
-88.58630894511938
 42
-0.4142135623731835
 10
-943.1011868885921
 20
-87.58630990032788
  0
LWPOLYLINE
  5
265
330
1F
100
AcDbEntity
  8
0
100
AcDbPolyline
 90
        8
 70
     1
 43
0.0
 10
-912.0511990950149
 20
-87.58633955892278
 10
-924.0511990956703
 20
-87.58632809702156
 42
0.4142135623731315
 10
-925.0512000508781
 20
-88.58632714181275
 10
-925.0512115127792
 20
-100.5863270973475
 42
0.4142135754363887
 10
-924.051212467917
 20
-101.5863280970846
 10
-912.0512124679219
 20
-101.5863395589858
 42
0.4142135622205533
 10
-911.0512115127161
 20
-100.5863405147146
 10
-911.0512000508148
 20
-88.58634047055918
 42
0.4142135494383946
  0
LWPOLYLINE
  5
266
330
1F
100
AcDbEntity
  8
0
100
AcDbPolyline
 90
        8
 70
     1
 43
0.0
 10
-919.2887775969103
 20
-182.5488265426851
 10
-907.2887775969149
 20
-182.5488380051072
 42
0.4142135625047162
 10
-906.2887766417086
 20
-181.5488389598647
 10
-906.2887651792864
 20
-169.5488389162201
 42
0.414213549588642
 10
-907.2887642240088
 20
-168.5488380045938
 10
-919.2887642245919
 20
-168.5488265421722
 42
0.4142135623733865
 10
-920.2887651797999
 20
-169.5488255869639
 10
-920.2887766422207
 20
-181.5488255439575
 42
0.4142135752719689
  0
LWPOLYLINE
  5
267
330
1F
100
AcDbEntity
  8
0
100
AcDbPolyline
 90
        8
 70
     1
 43
0.0
 10
-892.0011932027239
 20
-100.5863587114372
 10
-892.0011817402729
 20
-88.5863586678319
 42
0.4142135496000673
 10
-893.0011807850252
 20
-87.58635775619453
 10
-905.0011807845779
 20
-87.58634629374387
 42
0.4142135623733865
 10
-906.001181739785
 20
-88.58634533853532
 10
-906.0011932022376
 20
-100.5863452945306
 42
0.4142135749790393
 10
-905.0011941579262
 20
-101.5863462932582
 10
-893.0011941579298
 20
-101.5863577557085
 42
0.4142135622202204
  0
LWPOLYLINE
  5
268
330
1F
100
AcDbEntity
  8
0
100
AcDbPolyline
 90
        8
 70
     1
 43
0.0
 10
-938.338795907901
 20
-182.5488083455124
 42
-0.4142135751400981
 10
-939.3387949527625
 20
-181.5488073467856
 10
-939.338783489892
 20
-169.5488073902412
 42
-0.4142135623733448
 10
-938.3387825346851
 20
-168.5488083454493
 10
-926.3387825349999
 20
-168.5488198083205
 42
-0.414213549722771
 10
-925.3387834898287
 20
-169.5488207199568
 10
-925.3387949526993
 20
-181.548820763143
 42
-0.4142135625047266
 10
-926.3387959079068
 20
-182.5488198083841
  0
LWPOLYLINE
  5
269
330
1F
100
AcDbEntity
  8
0
100
AcDbPolyline
 90
        8
 70
     1
 43
0.0
 10
-957.3887837008932
 20
-182.5487901487895
 10
-945.388783700899
 20
-182.5488016116912
 42
0.4142135625053093
 10
-944.388782745691
 20
-181.5488025664486
 10
-944.3887712827899
 20
-169.5488025232946
 42
0.4142135497321777
 10
-945.3887703279919
 20
-168.5488016116583
 10
-957.388770327617
 20
-168.5487901487561
 42
0.4142135623728349
 10
-958.3887712828239
 20
-169.5487891935478
 10
-958.3887827457248
 20
-181.5487891500629
 42
0.4142135751313781
  0
LWPOLYLINE
  5
270
330
1F
100
AcDbEntity
  8
0
100
AcDbPolyline
 90
        8
 70
     1
 43
0.0
 10
-848.8512105897221
 20
-112.3988999286346
 10
-848.8512220516652
 20
-124.3988998851386
 42
0.4142135751348587
 10
-847.851223006833
 20
-125.3989008838753
 10
-835.851223006839
 20
-125.3989123458071
 42
0.4142135622208551
 10
-834.8512220516319
 20
-124.3989133015354
 10
-834.8512105897007
 20
-112.3989132574103
 42
0.4142135494471458
 10
-835.8512096339318
 20
-111.3989123457739
 10
-847.851209634517
 20
-111.3989008838427
 42
0.4142135623730951
  0
LWPOLYLINE
  5
271
330
1F
100
AcDbEntity
  8
0
100
AcDbPolyline
 90
        8
 70
     1
 43
0.0
 10
-820.2762470965302
 20
-131.4489150166668
 10
-820.2762585588821
 20
-143.4489149726903
 42
0.4142135749881338
 10
-819.2762595145399
 20
-144.4489159714178
 10
-807.2762595145452
 20
-144.4489274337789
 42
0.4142135622031343
 10
-806.2762585593379
 20
-143.4489283895666
 10
-806.2762470969866
 20
-131.4489283458627
 42
0.4142135495705153
 10
-807.2762461416383
 20
-130.4489274342252
 10
-819.2762461413229
 20
-130.448915971874
 42
0.4142135623734437
  0
CIRCLE
  5
272
330
1F
100
AcDbEntity
  8
0
100
AcDbCircle
 10
-817.528476717875
 20
-79.83646218883018
 30
-0.0000000000004441
 40
1.75000000000003
  0
CIRCLE
  5
273
330
1F
100
AcDbEntity
  8
0
100
AcDbCircle
 10
-759.0284767179021
 20
-79.83651806930192
 30
-0.0000000000004796
 40
1.75000000000003
  0
CIRCLE
  5
274
330
1F
100
AcDbEntity
  8
0
100
AcDbCircle
 10
-734.1888100512461
 20
-79.83654179627677
 30
-0.000000000000373
 40
1.75000000000003
  0
CIRCLE
  5
275
330
1F
100
AcDbEntity
  8
0
100
AcDbCircle
 10
-675.6889887055381
 20
-209.3358167363846
 30
0.0000000000004441
 40
1.75000000000003
  0
CIRCLE
  5
276
330
1F
100
AcDbEntity
  8
0
100
AcDbCircle
 10
-675.6888100512711
 20
-79.83659767674814
 30
-0.0000000000004619
 40
1.75000000000003
  0
CIRCLE
  5
277
330
1F
100
AcDbEntity
  8
0
100
AcDbCircle
 10
-734.1889887054428
 20
-209.3357112062348
 30
-0.0000000000003197
 40
1.75000000000003
  0
CIRCLE
  5
278
330
1F
100
AcDbEntity
  8
0
100
AcDbCircle
 10
-842.3681433845329
 20
-79.83643846185419
 30
-0.0000000000006573
 40
1.75000000000003
  0
CIRCLE
  5
279
330
1F
100
AcDbEntity
  8
0
100
AcDbCircle
 10
-817.5286553719768
 20
-209.3355608665495
 30
-0.0000000000004974
 40
1.75000000000003
  0
CIRCLE
  5
280
330
1F
100
AcDbEntity
  8
0
100
AcDbCircle
 10
-984.2078102397612
 20
-79.83630295848114
 30
-0.0000000000001599
 40
1.74999999999999
  0
CIRCLE
  5
281
330
1F
100
AcDbEntity
  8
0
100
AcDbCircle
 10
-842.3683220386031
 20
-209.3355160570128
 30
0.0000000000001243
 40
1.75000000000003
  0
CIRCLE
  5
282
330
1F
100
AcDbEntity
  8
0
100
AcDbCircle
 10
-984.2079888936673
 20
-209.3352601717243
 30
0.0000000000004441
 40
1.74999999999999
  0
CIRCLE
  5
283
330
1F
100
AcDbEntity
  8
0
100
AcDbCircle
 10
-900.868322038511
 20
-209.3354105268629
 30
0.0000000000003908
 40
1.75000000000003
  0
CIRCLE
  5
284
330
1F
100
AcDbEntity
  8
0
100
AcDbCircle
 10
-925.707988893763
 20
-209.3353657018733
 30
0.0000000000000533
 40
1.74999999999999
  0
CIRCLE
  5
285
330
1F
100
AcDbEntity
  8
0
100
AcDbCircle
 10
-759.0286553720719
 20
-209.3356663966982
 30
0.0000000000002132
 40
1.75000000000003
  0
CIRCLE
  5
286
330
1F
100
AcDbEntity
  8
0
100
AcDbCircle
 10
-900.8681433845072
 20
-79.83638258138291
 30
0.0000000000004263
 40
1.75000000000003
  0
CIRCLE
  5
287
330
1F
100
AcDbEntity
  8
0
100
AcDbCircle
 10
-925.707810239788
 20
-79.83635883895219
 30
-0.0000000000002665
 40
1.74999999999999
  0
LWPOLYLINE
  5
1008B
330
1F
100
AcDbEntity
  8
0
100
AcDbPolyline
 90
       21
 70
     0
 43
0.0
 10
-721.5512289002996
 20
-168.5489835793859
 10
-766.8887581206326
 20
-168.5489721165192
 42
0.4142135623724791
 10
-767.8887590758393
 20
-169.5489711613098
 10
-767.8887705387817
 20
-181.5489711177848
 42
0.4142135751225312
 10
-766.8887714939796
 20
-182.548972116512
 10
-759.6580219816899
 20
-182.5489721990124
 10
-759.6580229370061
 20
-183.5489851264902
 42
0.4142135623170377
 10
-758.658023892404
 20
-184.5489860818856
 10
-753.6580238924069
 20
-184.5489908574042
 42
0.414213562220981
 10
-752.6580229373502
 20
-183.5489918131324
 10
-752.658021981697
 20
-182.5489918131573
 10
-735.7820454189651
 20
-182.5490079327997
 10
-735.7820463745181
 20
-183.5490079325037
 42
0.4142135621711586
 10
-734.782047330415
 20
-184.549008888401
 10
-729.7820473304181
 20
-184.5490136639186
 42
0.4142135622205647
 10
-728.782046375211
 20
-183.5490146196466
 10
-728.782046375211
 20
-182.5489721990124
 10
-721.5512413178888
 20
-182.5489835789692
 42
0.4142135622207979
 10
-720.5512403626813
 20
-181.5489845346976
 10
-720.5512289003003
 20
-169.5489844910227
 42
0.414213549579256
 10
-721.5512279449816
 20
-168.5489835793863
  0
LWPOLYLINE
  5
1008C
330
1F
100
AcDbEntity
  8
0
100
AcDbPolyline
 90
        9
 70
     1
 43
0.0
 10
-987.2512198599093
 20
-112.3982850042762
 42
0.5544625263384127
 10
-988.2511060280002
 20
-111.3987667730421
 10
-1000.251631921438
 20
-111.3987553536611
 42
0.5542939594542529
 10
-1001.251344061102
 20
-112.3988218691436
 10
-1001.251344018405
 20
-124.3988218592807
 42
0.5514334604199829
 10
-1000.251344018409
 20
-125.3988218592803
 10
-988.2513440184041
 20
-125.3988218592799
 42
0.5552885011004465
 10
-987.2512313532435
 20
-124.3993065522925
 42
0.0001347061305495
 10
-987.2512312075626
 20
-124.3987677277998
  0
LWPOLYLINE
  5
1008D
330
1F
100
AcDbEntity
  8
0
100
AcDbPolyline
 90
        7
 70
     0
 43
0.0
 10
-854.6183171014824
 20
-206.2854975846037
 42
-0.9070050777551829
 10
-854.7538857126069
 20
-204.8987510826345
 10
-838.9827978087009
 20
-204.8987687362685
 42
-0.2784319120288784
 10
-838.447495540495
 20
-205.385524591817
 10
-821.4492982653947
 20
-205.3855552547238
 42
-0.2784622888037736
 10
-820.913914154225
 20
-204.8987889619837
 10
-805.1432667523021
 20
-204.8988066151302
  0
LWPOLYLINE
  5
1008E
330
1F
100
AcDbEntity
  8
0
100
AcDbPolyline
 90
        8
 70
     0
 43
0.0
 10
-888.6183171014325
 20
-206.2854362513244
 42
0.9069277565619515
 10
-888.4826262013929
 20
-204.8987133277919
 10
-904.2538882303267
 20
-204.8986956739561
 42
0.2783431697432404
 10
-904.788966018364
 20
-205.3854049168811
 10
-921.7871611208916
 20
-205.3853742530231
 42
0.2783128673394672
 10
-922.3221572588713
 20
-204.8986754489266
 10
-938.0938594693152
 20
-204.8986577946014
 42
0.906801331397972
 10
-937.9579837680049
 20
-206.2853436028087
  0
LWPOLYLINE
  5
1008F
330
1F
100
AcDbEntity
  8
0
100
AcDbPolyline
 90
        8
 70
     0
 43
0.0
 10
-855.3181438861299
 20
-83.58642097570463
 42
0.4142158064469339
 10
-854.6181479375341
 20
-84.28642309958883
 10
-839.1181480125721
 20
-84.28643790530697
 42
0.3316783715176363
 10
-838.4473277867988
 20
-83.7864407097359
 10
-821.4491305116821
 20
-83.78645694700809
 42
0.3316768640056403
 10
-820.778312327617
 20
-84.28645177995777
 10
-805.2784813459142
 20
-84.2864665855145
 42
0.414210160156891
 10
-804.5784806772896
 20
-83.58647538529792
  0
LWPOLYLINE
  5
10090
330
1F
100
AcDbEntity
  8
0
100
AcDbPolyline
 90
        8
 70
     0
 43
0.0
 10
-771.9784735749665
 20
-83.58649548263516
 42
0.4142179406413347
 10
-771.2784812708969
 20
-84.28649906256362
 10
-755.7784813459361
 20
-84.28651386828159
 42
0.3316768641157048
 10
-755.1076622065949
 20
-83.78652031660982
 10
-738.1094627585865
 20
-83.78653655394128
 42
0.3316753565831196
 10
-737.4386456609819
 20
-84.28652774293237
 10
-721.9388146792868
 20
-84.28654254848922
 42
0.4142098555076058
 10
-721.2388140106177
 20
-83.58655207636997
  0
LWPOLYLINE
  5
10091
330
1F
100
AcDbEntity
  8
0
100
AcDbPolyline
 90
        6
 70
     0
 43
0.0
 10
-688.6388140106388
 20
-83.58656998936718
 42
0.4142153898333238
 10
-687.9388146793042
 20
-84.28657502554838
 10
-672.438814679311
 20
-84.28658983126627
 42
0.331675356830185
 10
-671.7679966263374
 20
-83.78659992322198
 10
-657.6382971024461
 20
-83.78661342100327
 42
-0.4142135623284121
 10
-654.838299777024
 20
-86.58661609524648
  0
LWPOLYLINE
  5
10092
330
1F
100
AcDbEntity
  8
0
100
AcDbPolyline
 90
        7
 70
     0
 43
0.0
 10
-688.6389823163099
 20
-205.585795422748
 42
-0.358462750254904
 10
-688.0739360209279
 20
-204.8989376586908
 10
-672.304081089178
 20
-204.8989553109476
 42
-0.2786708462389126
 10
-671.7681643802221
 20
-205.385825267871
 10
-657.6384156313371
 20
-205.3858507558265
 42
0.41421381096277
 10
-654.8384105803799
 20
-202.5858534303784
 10
-654.8382997770239
 20
-86.58661609558627
  0
LWPOLYLINE
  5
10093
330
1F
100
AcDbEntity
  8
0
100
AcDbPolyline
 90
        8
 70
     0
 43
0.0
 10
-721.238982316342
 20
-205.5857498535468
 42
0.3584198378036145
 10
-721.8039086680299
 20
-204.8988999024703
 10
-737.573939351523
 20
-204.8988822500152
 42
0.278581689553012
 10
-738.1096305123984
 20
-205.3857055925755
 10
-755.1078299603833
 20
-205.3856749297101
 42
0.2785512375189728
 10
-755.6434390838139
 20
-204.8988620236065
 10
-771.4139112314509
 20
-204.898844370661
 42
0.9072093281956933
 10
-771.2786504349581
 20
-206.2856515663977
  0
ENDSEC
  0
SECTION
  2
OBJECTS
  0
DICTIONARY
  5
C
330
0
100
AcDbDictionary
281
     1
  3
ACAD_CIP_PREVIOUS_PRODUCT_INFO
350
1005A
  3
ACAD_COLOR
350
10036
  3
ACAD_DETAILVIEWSTYLE
350
10051
  3
ACAD_GROUP
350
D
  3
ACAD_LAYOUT
350
10037
  3
ACAD_MATERIAL
350
10004
  3
ACAD_MLEADERSTYLE
350
1004D
  3
ACAD_MLINESTYLE
350
17
  3
ACAD_PLOTSETTINGS
350
10054
  3
ACAD_PLOTSTYLENAME
350
10002
  3
ACAD_SCALELIST
350
1003B
  3
ACAD_SECTIONVIEWSTYLE
350
1004F
  3
ACAD_TABLESTYLE
350
10038
  3
ACAD_VISUALSTYLE
350
1001D
  3
ACDB_RECOMPOSE_DATA
350
100A3
  3
AcDbVariableDictionary
350
10096
  0
DICTIONARY
  5
10094
330
50
100
AcDbDictionary
280
     1
281
     1
  3
ADSK_XREC_LAYER_RECONCILED
360
10095
  0
DICTIONARY
  5
10064
330
1F
100
AcDbDictionary
280
     1
281
     1
  3
ACAD_SORTENTS
360
10065
  0
XRECORD
  5
1005A
102
{ACAD_REACTORS
330
C
102
}
330
C
100
AcDbXrecord
280
     1
300
ACD
300
2021
300
ACD_F_S
  0
DICTIONARY
  5
10036
102
{ACAD_REACTORS
330
C
102
}
330
C
100
AcDbDictionary
281
     1
  0
DICTIONARY
  5
10051
102
{ACAD_REACTORS
330
C
102
}
330
C
100
AcDbDictionary
281
     1
  3
Imperial24
350
10052
  0
DICTIONARY
  5
D
330
C
100
AcDbDictionary
281
     1
  0
DICTIONARY
  5
10037
102
{ACAD_REACTORS
330
C
102
}
330
C
100
AcDbDictionary
281
     1
  3
Layout1
350
10056
  3
Model
350
10055
  0
DICTIONARY
  5
10004
102
{ACAD_REACTORS
330
C
102
}
330
C
100
AcDbDictionary
281
     1
  3
ByBlock
350
1000D
  3
ByLayer
350
10005
  3
Global
350
10015
  0
DICTIONARY
  5
1004D
102
{ACAD_REACTORS
330
C
102
}
330
C
100
AcDbDictionary
281
     1
  3
Standard
350
1004E
  0
DICTIONARY
  5
17
330
C
100
AcDbDictionary
281
     1
  3
Standard
350
1003A
  0
DICTIONARY
  5
10054
102
{ACAD_REACTORS
330
C
102
}
330
C
100
AcDbDictionary
281
     1
  0
ACDBDICTIONARYWDFLT
  5
10002
102
{ACAD_REACTORS
330
C
102
}
330
C
100
AcDbDictionary
281
     1
  3
Normal
350
10003
100
AcDbDictionaryWithDefault
340
10003
  0
DICTIONARY
  5
1003B
102
{ACAD_REACTORS
330
C
102
}
330
C
100
AcDbDictionary
281
     1
  3
A0
350
1003C
  3
A1
350
1003D
  3
A2
350
1003E
  3
A3
350
1003F
  3
A4
350
10040
  3
A5
350
10041
  3
A6
350
10042
  3
A7
350
10043
  3
A8
350
10044
  3
A9
350
10045
  3
B0
350
10046
  3
B1
350
10047
  3
B2
350
10048
  3
B3
350
10049
  3
B4
350
1004A
  3
B5
350
1004B
  3
B6
350
1004C
  0
DICTIONARY
  5
1004F
102
{ACAD_REACTORS
330
C
102
}
330
C
100
AcDbDictionary
281
     1
  3
Imperial24
350
10050
  0
DICTIONARY
  5
10038
102
{ACAD_REACTORS
330
C
102
}
330
C
100
AcDbDictionary
281
     1
  3
Standard
350
10039
  0
DICTIONARY
  5
1001D
102
{ACAD_REACTORS
330
C
102
}
330
C
100
AcDbDictionary
281
     1
  3
2dWireframe
350
10023
  3
Basic
350
10022
  3
Brighten
350
10029
  3
ColorChange
350
1002D
  3
Conceptual
350
10026
  3
Dim
350
10028
  3
EdgeColorOff
350
10035
  3
Facepattern
350
1002C
  3
Flat
350
1001E
  3
FlatWithEdges
350
1001F
  3
Gouraud
350
10020
  3
GouraudWithEdges
350
10021
  3
Hidden
350
10025
  3
JitterOff
350
10033
  3
Linepattern
350
1002B
  3
OverhangOff
350
10034
  3
Realistic
350
10027
  3
Shaded
350
10032
  3
Shaded with edges
350
10031
  3
Shades of Gray
350
1002E
  3
Sketchy
350
1002F
  3
Thicken
350
1002A
  3
Wireframe
350
10024
  3
X-Ray
350
10030
  0
XRECORD
  5
100A3
102
{ACAD_REACTORS
330
C
102
}
330
C
100
AcDbXrecord
280
     1
 90
        1
330
10039
  0
DICTIONARY
  5
10096
102
{ACAD_REACTORS
330
C
102
}
330
C
100
AcDbDictionary
281
     1
  3
CANNOSCALE
350
1009C
  3
CMLEADERSTYLE
350
10098
  3
CTABLESTYLE
350
10097
  3
CVIEWDETAILSTYLE
350
10099
  3
CVIEWSECTIONSTYLE
350
1009A
  3
LAYEREVAL
350
1009E
  3
LAYERNOTIFY
350
1009F
  3
LIGHTINGUNITS
350
1009D
  3
MSLTSCALE
350
1009B
  3
XCLIPFRAME
350
100A0
  0
XRECORD
  5
10095
102
{ACAD_REACTORS
330
10094
102
}
330
10094
100
AcDbXrecord
280
     1
290
     1
  0
SORTENTSTABLE
  5
10065
102
{ACAD_REACTORS
330
10064
102
}
330
10064
100
AcDbSortentsTable
330
1F
331
170
  5
190
331
171
  5
191
331
172
  5
192
331
173
  5
193
331
174
  5
194
331
175
  5
195
331
176
  5
196
331
177
  5
197
331
178
  5
198
331
179
  5
199
331
180
  5
200
331
181
  5
201
331
182
  5
202
331
183
  5
203
331
184
  5
204
331
185
  5
205
331
186
  5
206
331
187
  5
207
331
188
  5
208
331
189
  5
209
331
190
  5
210
331
191
  5
211
331
192
  5
212
331
193
  5
213
331
194
  5
214
331
195
  5
215
331
196
  5
216
331
197
  5
217
331
198
  5
218
331
199
  5
219
331
200
  5
220
331
201
  5
221
331
202
  5
222
331
203
  5
223
331
204
  5
224
331
205
  5
225
331
206
  5
226
331
207
  5
227
331
208
  5
228
331
209
  5
229
331
210
  5
230
331
211
  5
231
331
212
  5
232
331
213
  5
233
331
214
  5
234
331
215
  5
235
331
216
  5
236
331
217
  5
237
331
218
  5
238
331
219
  5
239
331
220
  5
240
331
221
  5
241
331
222
  5
242
331
223
  5
243
331
224
  5
244
331
225
  5
245
331
226
  5
246
331
227
  5
247
331
228
  5
248
331
229
  5
249
331
230
  5
250
331
231
  5
251
331
232
  5
252
331
233
  5
253
331
234
  5
254
331
235
  5
255
331
236
  5
256
331
237
  5
257
331
238
  5
258
331
239
  5
259
331
240
  5
260
331
241
  5
261
331
242
  5
262
331
243
  5
263
331
244
  5
264
331
245
  5
265
331
255
  5
275
331
256
  5
276
331
257
  5
277
331
258
  5
278
331
259
  5
279
331
260
  5
280
331
261
  5
281
331
262
  5
282
331
263
  5
283
331
264
  5
284
331
265
  5
285
331
266
  5
286
331
267
  5
287
331
268
  5
10066
331
269
  5
10067
331
270
  5
10068
331
271
  5
10069
331
272
  5
1006A
331
273
  5
1006B
331
274
  5
1006C
331
275
  5
1006D
331
276
  5
1006E
331
277
  5
1006F
331
278
  5
10070
331
279
  5
10071
331
280
  5
10072
331
281
  5
10073
331
282
  5
10074
331
283
  5
10075
331
284
  5
10076
331
285
  5
10077
331
286
  5
10078
331
287
  5
10079
  0
ACDBDETAILVIEWSTYLE
  5
10052
102
{ACAD_XDICTIONARY
360
100D7
102
}
102
{ACAD_REACTORS
330
10051
102
}
330
10051
100
AcDbModelDocViewStyle
 70
     0
  3
Imperial24
290
     0
100
AcDbDetailViewStyle
 70
     0
 71
     0
 90
        3
 71
     1
340
11
 62
   256
 40
0.24
340
0
 62
   256
 40
0.24
300

 40
0.36
280
     3
 71
     2
340
0
 90
       25
 62
   256
 71
     3
340
11
 62
   256
 40
0.24
 90
        1
 40
0.75
 90
        1
300
%<\AcVar ViewType \f "%tc1">% %<\AcVar ViewDetailId>%\PSCALE %<\AcVar ViewScale \f "%sn">%
 71
     4
340
0
 90
       25
 62
   256
340
0
 90
       25
 62
   256
280
     0
  0
LAYOUT
  5
10056
102
{ACAD_REACTORS
330
10037
102
}
330
10037
100
AcDbPlotSettings
  1

  2
Microsoft Print to PDF
  4

  6

 40
0.0
 41
0.0
 42
0.0
 43
0.0
 44
0.0
 45
0.0
 46
0.0
 47
0.0
 48
0.0
 49
0.0
140
0.0
141
0.0
142
1.0
143
1.0
 70
   688
 72
     0
 73
     0
 74
     5
  7

 75
    16
147
1.0
 76
     0
 77
     2
 78
   300
148
0.0
149
0.0
100
AcDbLayout
  1
Layout1
 70
     1
 71
     1
 10
0.0
 20
0.0
 11
12.0
 21
9.0
 12
0.0
 22
0.0
 32
0.0
 14
1.000000000000000E+20
 24
1.000000000000000E+20
 34
1.000000000000000E+20
 15
-1.000000000000000E+20
 25
-1.000000000000000E+20
 35
-1.000000000000000E+20
146
0.0
 13
0.0
 23
0.0
 33
0.0
 16
1.0
 26
0.0
 36
0.0
 17
0.0
 27
1.0
 37
0.0
 76
     0
330
1B
  0
LAYOUT
  5
10055
102
{ACAD_REACTORS
330
10037
102
}
330
10037
100
AcDbPlotSettings
  1

  2
Microsoft Print to PDF
  4

  6

 40
0.0
 41
0.0
 42
0.0
 43
0.0
 44
0.0
 45
0.0
 46
0.0
 47
0.0
 48
0.0
 49
0.0
140
0.0
141
0.0
142
1.0
143
1.0
 70
  1712
 72
     0
 73
     0
 74
     0
  7

 75
     0
147
1.0
 76
     0
 77
     2
 78
   300
148
0.0
149
0.0
100
AcDbLayout
  1
Model
 70
     1
 71
     0
 10
0.0
 20
0.0
 11
12.0
 21
9.0
 12
0.0
 22
0.0
 32
0.0
 14
0.0
 24
0.0
 34
0.0
 15
0.0
 25
0.0
 35
0.0
146
0.0
 13
0.0
 23
0.0
 33
0.0
 16
1.0
 26
0.0
 36
0.0
 17
0.0
 27
1.0
 37
0.0
 76
     0
330
1F
331
10059
  0
MATERIAL
  5
1000D
102
{ACAD_XDICTIONARY
360
1000E
102
}
102
{ACAD_REACTORS
330
10004
102
}
330
10004
100
AcDbMaterial
  1
ByBlock
 72
     0
 43
0.0008202099737533
 43
0.0
 43
0.0
 43
0.0
 43
0.0
 43
0.0008202099737533
 43
0.0
 43
0.0
 43
0.0
 43
0.0
 43
1.0
 43
0.0
 43
0.0
 43
0.0
 43
0.0
 43
1.0
 77
     0
 47
0.0008202099737533
 47
0.0
 47
0.0
 47
0.0
 47
0.0
 47
0.0008202099737533
 47
0.0
 47
0.0
 47
0.0
 47
0.0
 47
1.0
 47
0.0
 47
0.0
 47
0.0
 47
0.0
 47
1.0
171
     0
 49
0.0008202099737533
 49
0.0
 49
0.0
 49
0.0
 49
0.0
 49
0.0008202099737533
 49
0.0
 49
0.0
 49
0.0
 49
0.0
 49
1.0
 49
0.0
 49
0.0
 49
0.0
 49
0.0
 49
1.0
175
     0
142
0.0008202099737533
142
0.0
142
0.0
142
0.0
142
0.0
142
0.0008202099737533
142
0.0
142
0.0
142
0.0
142
0.0
142
1.0
142
0.0
142
0.0
142
0.0
142
0.0
142
1.0
179
     0
144
0.0008202099737533
144
0.0
144
0.0
144
0.0
144
0.0
144
0.0008202099737533
144
0.0
144
0.0
144
0.0
144
0.0
144
1.0
144
0.0
144
0.0
144
0.0
144
0.0
144
1.0
147
0.0008202099737533
147
0.0
147
0.0
147
0.0
147
0.0
147
0.0008202099737533
147
0.0
147
0.0
147
0.0
147
0.0
147
1.0
147
0.0
147
0.0
147
0.0
147
0.0
147
1.0
  0
MATERIAL
  5
10005
102
{ACAD_XDICTIONARY
360
10006
102
}
102
{ACAD_REACTORS
330
10004
102
}
330
10004
100
AcDbMaterial
  1
ByLayer
 72
     0
 43
0.0008202099737533
 43
0.0
 43
0.0
 43
0.0
 43
0.0
 43
0.0008202099737533
 43
0.0
 43
0.0
 43
0.0
 43
0.0
 43
1.0
 43
0.0
 43
0.0
 43
0.0
 43
0.0
 43
1.0
 77
     0
 47
0.0008202099737533
 47
0.0
 47
0.0
 47
0.0
 47
0.0
 47
0.0008202099737533
 47
0.0
 47
0.0
 47
0.0
 47
0.0
 47
1.0
 47
0.0
 47
0.0
 47
0.0
 47
0.0
 47
1.0
171
     0
 49
0.0008202099737533
 49
0.0
 49
0.0
 49
0.0
 49
0.0
 49
0.0008202099737533
 49
0.0
 49
0.0
 49
0.0
 49
0.0
 49
1.0
 49
0.0
 49
0.0
 49
0.0
 49
0.0
 49
1.0
175
     0
142
0.0008202099737533
142
0.0
142
0.0
142
0.0
142
0.0
142
0.0008202099737533
142
0.0
142
0.0
142
0.0
142
0.0
142
1.0
142
0.0
142
0.0
142
0.0
142
0.0
142
1.0
179
     0
144
0.0008202099737533
144
0.0
144
0.0
144
0.0
144
0.0
144
0.0008202099737533
144
0.0
144
0.0
144
0.0
144
0.0
144
1.0
144
0.0
144
0.0
144
0.0
144
0.0
144
1.0
147
0.0008202099737533
147
0.0
147
0.0
147
0.0
147
0.0
147
0.0008202099737533
147
0.0
147
0.0
147
0.0
147
0.0
147
1.0
147
0.0
147
0.0
147
0.0
147
0.0
147
1.0
  0
MATERIAL
  5
10015
102
{ACAD_XDICTIONARY
360
10016
102
}
102
{ACAD_REACTORS
330
10004
102
}
330
10004
100
AcDbMaterial
  1
Global
 72
     0
 43
0.0008202099737533
 43
0.0
 43
0.0
 43
0.0
 43
0.0
 43
0.0008202099737533
 43
0.0
 43
0.0
 43
0.0
 43
0.0
 43
1.0
 43
0.0
 43
0.0
 43
0.0
 43
0.0
 43
1.0
 77
     0
 47
0.0008202099737533
 47
0.0
 47
0.0
 47
0.0
 47
0.0
 47
0.0008202099737533
 47
0.0
 47
0.0
 47
0.0
 47
0.0
 47
1.0
 47
0.0
 47
0.0
 47
0.0
 47
0.0
 47
1.0
171
     0
 49
0.0008202099737533
 49
0.0
 49
0.0
 49
0.0
 49
0.0
 49
0.0008202099737533
 49
0.0
 49
0.0
 49
0.0
 49
0.0
 49
1.0
 49
0.0
 49
0.0
 49
0.0
 49
0.0
 49
1.0
175
     0
142
0.0008202099737533
142
0.0
142
0.0
142
0.0
142
0.0
142
0.0008202099737533
142
0.0
142
0.0
142
0.0
142
0.0
142
1.0
142
0.0
142
0.0
142
0.0
142
0.0
142
1.0
179
     0
144
0.0008202099737533
144
0.0
144
0.0
144
0.0
144
0.0
144
0.0008202099737533
144
0.0
144
0.0
144
0.0
144
0.0
144
1.0
144
0.0
144
0.0
144
0.0
144
0.0
144
1.0
147
0.0008202099737533
147
0.0
147
0.0
147
0.0
147
0.0
147
0.0008202099737533
147
0.0
147
0.0
147
0.0
147
0.0
147
1.0
147
0.0
147
0.0
147
0.0
147
0.0
147
1.0
  0
MLEADERSTYLE
  5
1004E
102
{ACAD_REACTORS
330
1004D
102
}
330
1004D
100
AcDbMLeaderStyle
170
     2
171
     1
172
     0
 90
        2
 40
0.0
 41
0.0
173
     1
 91
-1056964608
340
14
 92
       -2
290
     1
 42
0.09
291
     1
 43
0.36
  3
Standard
 44
0.18
300

342
11
174
     1
178
     6
175
     1
176
     0
 93
-1056964608
 45
0.18
292
     0
297
     0
 46
0.18
 94
-1056964608
 47
1.0
 49
1.0
140
1.0
293
     1
141
0.0
294
     1
177
     0
142
1.0
295
     0
296
     0
143
0.125
1001
ACAD_MLEADERVER
1070
     2
  0
MLINESTYLE
  5
1003A
102
{ACAD_REACTORS
330
17
102
}
330
17
100
AcDbMlineStyle
  2
STANDARD
 70
     0
  3

 62
   256
 51
90.0
 52
90.0
 71
     2
 49
0.5
 62
   256
  6
BYLAYER
 49
-0.5
 62
   256
  6
BYLAYER
  0
ACDBPLACEHOLDER
  5
10003
102
{ACAD_REACTORS
330
10002
102
}
330
10002
  0
SCALE
  5
1003C
102
{ACAD_REACTORS
330
1003B
102
}
330
1003B
100
AcDbScale
 70
     0
300
1:1
140
1.0
141
1.0
290
     1
  0
SCALE
  5
1003D
102
{ACAD_REACTORS
330
1003B
102
}
330
1003B
100
AcDbScale
 70
     0
300
1/128" = 1'-0"
140
0.0078125
141
12.0
290
     0
  0
SCALE
  5
1003E
102
{ACAD_REACTORS
330
1003B
102
}
330
1003B
100
AcDbScale
 70
     0
300
1/64" = 1'-0"
140
0.015625
141
12.0
290
     0
  0
SCALE
  5
1003F
102
{ACAD_REACTORS
330
1003B
102
}
330
1003B
100
AcDbScale
 70
     0
300
1/32" = 1'-0"
140
0.03125
141
12.0
290
     0
  0
SCALE
  5
10040
102
{ACAD_REACTORS
330
1003B
102
}
330
1003B
100
AcDbScale
 70
     0
300
1/16" = 1'-0"
140
0.0625
141
12.0
290
     0
  0
SCALE
  5
10041
102
{ACAD_REACTORS
330
1003B
102
}
330
1003B
100
AcDbScale
 70
     0
300
3/32" = 1'-0"
140
0.09375
141
12.0
290
     0
  0
SCALE
  5
10042
102
{ACAD_REACTORS
330
1003B
102
}
330
1003B
100
AcDbScale
 70
     0
300
1/8" = 1'-0"
140
0.125
141
12.0
290
     0
  0
SCALE
  5
10043
102
{ACAD_REACTORS
330
1003B
102
}
330
1003B
100
AcDbScale
 70
     0
300
3/16" = 1'-0"
140
0.1875
141
12.0
290
     0
  0
SCALE
  5
10044
102
{ACAD_REACTORS
330
1003B
102
}
330
1003B
100
AcDbScale
 70
     0
300
1/4" = 1'-0"
140
0.25
141
12.0
290
     0
  0
SCALE
  5
10045
102
{ACAD_REACTORS
330
1003B
102
}
330
1003B
100
AcDbScale
 70
     0
300
3/8" = 1'-0"
140
0.375
141
12.0
290
     0
  0
SCALE
  5
10046
102
{ACAD_REACTORS
330
1003B
102
}
330
1003B
100
AcDbScale
 70
     0
300
1/2" = 1'-0"
140
0.5
141
12.0
290
     0
  0
SCALE
  5
10047
102
{ACAD_REACTORS
330
1003B
102
}
330
1003B
100
AcDbScale
 70
     0
300
3/4" = 1'-0"
140
0.75
141
12.0
290
     0
  0
SCALE
  5
10048
102
{ACAD_REACTORS
330
1003B
102
}
330
1003B
100
AcDbScale
 70
     0
300
1" = 1'-0"
140
1.0
141
12.0
290
     0
  0
SCALE
  5
10049
102
{ACAD_REACTORS
330
1003B
102
}
330
1003B
100
AcDbScale
 70
     0
300
1-1/2" = 1'-0"
140
1.5
141
12.0
290
     0
  0
SCALE
  5
1004A
102
{ACAD_REACTORS
330
1003B
102
}
330
1003B
100
AcDbScale
 70
     0
300
3" = 1'-0"
140
3.0
141
12.0
290
     0
  0
SCALE
  5
1004B
102
{ACAD_REACTORS
330
1003B
102
}
330
1003B
100
AcDbScale
 70
     0
300
6" = 1'-0"
140
6.0
141
12.0
290
     0
  0
SCALE
  5
1004C
102
{ACAD_REACTORS
330
1003B
102
}
330
1003B
100
AcDbScale
 70
     0
300
1'-0" = 1'-0"
140
12.0
141
12.0
290
     0
  0
ACDBSECTIONVIEWSTYLE
  5
10050
102
{ACAD_XDICTIONARY
360
100D5
102
}
102
{ACAD_REACTORS
330
1004F
102
}
330
1004F
100
AcDbModelDocViewStyle
 70
     0
  3
Imperial24
290
     0
100
AcDbSectionViewStyle
 70
     0
 71
     0
 90
       78
 71
     1
340
11
 62
   256
 40
0.24
340
0
340
0
 62
   256
 40
0.24
300
I, O, Q, S, X, Z
 40
0.48
 90
        3
 40
0.18
 90
        1
 71
     2
340
0
 90
       25
 62
   256
340
0
 90
       50
 62
   256
 40
0.24
 40
0.0
 40
0.24
 71
     3
340
11
 62
   256
 40
0.24
 90
        1
 40
0.75
 90
        1
300
%<\AcVar ViewType \f "%tc1">% %<\AcVar ViewSectionStartId>%-%<\AcVar ViewSectionEndId>%\PSCALE %<\AcVar ViewScale \f "%sn">%
 71
     4
 62
   256
 62
   257
300
ANSI31
 40
1.0
 90
        0
290
     0
290
     0
 90
        6
 40
0.0
 40
1.570796326794896
 40
0.2617993877991494
 40
1.308996938995747
 40
-0.2617993877991494
 40
1.832595714594046
  0
TABLESTYLE
  5
10039
102
{ACAD_XDICTIONARY
360
100A1
102
}
102
{ACAD_REACTORS
330
10038
102
}
330
10038
100
AcDbTableStyle
  3
Standard
 70
     0
 71
     0
 40
0.06
 41
0.06
280
     0
281
     0
  7
STANDARD
140
0.18
170
     2
 62
     0
 63
     7
283
     0
 90
      512
 91
        0
  1

274
    -2
284
     1
 64
     0
275
    -2
285
     1
 65
     0
276
    -2
286
     1
 66
     0
277
    -2
287
     1
 67
     0
278
    -2
288
     1
 68
     0
279
    -2
289
     1
 69
     0
  7
STANDARD
140
0.25
170
     5
 62
     0
 63
     7
283
     0
 90
      512
 91
        0
  1

274
    -2
284
     1
 64
     0
275
    -2
285
     1
 65
     0
276
    -2
286
     1
 66
     0
277
    -2
287
     1
 67
     0
278
    -2
288
     1
 68
     0
279
    -2
289
     1
 69
     0
  7
STANDARD
140
0.18
170
     5
 62
     0
 63
     7
283
     0
 90
      512
 91
        0
  1

274
    -2
284
     1
 64
     0
275
    -2
285
     1
 65
     0
276
    -2
286
     1
 66
     0
277
    -2
287
     1
 67
     0
278
    -2
288
     1
 68
     0
279
    -2
289
     1
 69
     0
  0
VISUALSTYLE
  5
10023
102
{ACAD_XDICTIONARY
360
100AE
102
}
102
{ACAD_REACTORS
330
1001D
102
}
330
1001D
100
AcDbVisualStyle
  2
2dWireframe
 70
     4
 71
     0
 72
     2
 73
     0
 90
        0
 40
-0.6
 41
-30.0
 62
     5
 63
     7
421
 16777215
 74
     1
 91
        4
 64
     7
 65
   257
 75
     1
175
     1
 42
1.0
 92
        0
 66
   257
 43
1.0
 76
     1
 77
     6
 78
     2
 67
     7
 79
     5
170
     0
171
     0
290
     0
174
     0
 93
        1
 44
0.0
173
     0
291
     0
 45
0.0
1001
ACAD
1000
AcDbSavedByObjectVersion
1070
     0
  0
VISUALSTYLE
  5
10022
102
{ACAD_XDICTIONARY
360
100AC
102
}
102
{ACAD_REACTORS
330
1001D
102
}
330
1001D
100
AcDbVisualStyle
  2
Basic
 70
     7
 71
     1
 72
     0
 73
     1
 90
        0
 40
-0.6
 41
-30.0
 62
     5
 63
     7
421
 16777215
 74
     0
 91
        4
 64
     7
 65
   257
 75
     1
175
     1
 42
1.0
 92
        8
 66
     7
 43
1.0
 76
     1
 77
     6
 78
     2
 67
     7
 79
     5
170
     0
171
     0
290
     0
174
     0
 93
        1
 44
0.0
173
     0
291
     1
 45
0.0
1001
ACAD
1000
AcDbSavedByObjectVersion
1070
     0
  0
VISUALSTYLE
  5
10029
102
{ACAD_XDICTIONARY
360
100BA
102
}
102
{ACAD_REACTORS
330
1001D
102
}
330
1001D
100
AcDbVisualStyle
  2
Brighten
 70
    12
 71
     2
 72
     2
 73
     0
 90
        0
 40
-0.6
 41
-30.0
 62
     5
 63
     7
421
 16777215
 74
     1
 91
        4
 64
     7
 65
   257
 75
     1
175
     1
 42
1.0
 92
        8
 66
     7
 43
1.0
 76
     1
 77
     6
 78
     2
 67
     7
 79
     5
170
     0
171
     0
290
     0
174
     0
 93
        1
 44
50.0
173
     0
291
     1
 45
0.0
1001
ACAD
1000
AcDbSavedByObjectVersion
1070
     0
  0
VISUALSTYLE
  5
1002D
102
{ACAD_XDICTIONARY
360
100C2
102
}
102
{ACAD_REACTORS
330
1001D
102
}
330
1001D
100
AcDbVisualStyle
  2
ColorChange
 70
    16
 71
     2
 72
     2
 73
     3
 90
        0
 40
-0.6
 41
-30.0
 62
     5
 63
     8
421
  8421504
 74
     1
 91
        4
 64
     7
 65
   257
 75
     1
175
     1
 42
1.0
 92
        8
 66
     8
424
  8421504
 43
1.0
 76
     1
 77
     6
 78
     2
 67
     7
 79
     5
170
     0
171
     0
290
     0
174
     0
 93
        1
 44
0.0
173
     0
291
     1
 45
0.0
1001
ACAD
1000
AcDbSavedByObjectVersion
1070
     0
  0
VISUALSTYLE
  5
10026
102
{ACAD_XDICTIONARY
360
100B4
102
}
102
{ACAD_REACTORS
330
1001D
102
}
330
1001D
100
AcDbVisualStyle
  2
Conceptual
 70
     9
 71
     3
 72
     2
 73
     0
 90
        0
 40
-0.6
 41
-30.0
 62
     5
 63
     7
421
 16777215
 74
     2
 91
        2
 64
     7
 65
   257
 75
     1
175
     1
 42
179.0
 92
        8
 66
     7
 43
1.0
 76
     1
 77
     6
 78
     2
 67
     7
 79
     3
170
     0
171
     0
290
     0
174
     0
 93
        1
 44
0.0
173
     0
291
     0
 45
0.0
1001
ACAD
1000
AcDbSavedByObjectVersion
1070
     0
  0
VISUALSTYLE
  5
10028
102
{ACAD_XDICTIONARY
360
100B8
102
}
102
{ACAD_REACTORS
330
1001D
102
}
330
1001D
100
AcDbVisualStyle
  2
Dim
 70
    11
 71
     2
 72
     2
 73
     0
 90
        0
 40
-0.6
 41
-30.0
 62
     5
 63
     7
421
 16777215
 74
     1
 91
        4
 64
     7
 65
   257
 75
     1
175
     1
 42
1.0
 92
        8
 66
     7
 43
1.0
 76
     1
 77
     6
 78
     2
 67
     7
 79
     5
170
     0
171
     0
290
     0
174
     0
 93
        1
 44
-50.0
173
     0
291
     1
 45
0.0
1001
ACAD
1000
AcDbSavedByObjectVersion
1070
     0
  0
VISUALSTYLE
  5
10035
102
{ACAD_XDICTIONARY
360
100D2
102
}
102
{ACAD_REACTORS
330
1001D
102
}
330
1001D
100
AcDbVisualStyle
  2
EdgeColorOff
 70
    22
 71
     2
 72
     2
 73
     0
 90
        0
 40
-0.6
 41
-30.0
 62
     5
 63
     7
421
 16777215
 74
     1
 91
        4
 64
     7
 65
   257
 75
     1
175
     1
 42
1.0
 92
        8
 66
     7
 43
1.0
 76
     1
 77
     6
 78
     2
 67
     7
 79
     5
170
     0
171
     0
290
     0
174
     0
 93
        1
 44
0.0
173
     0
291
     1
 45
0.0
1001
ACAD
1000
AcDbSavedByObjectVersion
1070
     0
  0
VISUALSTYLE
  5
1002C
102
{ACAD_XDICTIONARY
360
100C0
102
}
102
{ACAD_REACTORS
330
1001D
102
}
330
1001D
100
AcDbVisualStyle
  2
Facepattern
 70
    15
 71
     2
 72
     2
 73
     0
 90
        0
 40
-0.6
 41
-30.0
 62
     5
 63
     7
421
 16777215
 74
     1
 91
        4
 64
     7
 65
   257
 75
     1
175
     1
 42
1.0
 92
        8
 66
     7
 43
1.0
 76
     1
 77
     6
 78
     2
 67
     7
 79
     5
170
     0
171
     0
290
     0
174
     0
 93
        1
 44
0.0
173
     0
291
     1
 45
0.0
1001
ACAD
1000
AcDbSavedByObjectVersion
1070
     0
  0
VISUALSTYLE
  5
1001E
102
{ACAD_XDICTIONARY
360
100A4
102
}
102
{ACAD_REACTORS
330
1001D
102
}
330
1001D
100
AcDbVisualStyle
  2
Flat
 70
     0
 71
     2
 72
     1
 73
     1
 90
        2
 40
-0.6
 41
30.0
 62
     5
 63
     7
421
 16777215
 74
     0
 91
        0
 64
     7
 65
   257
 75
     1
175
     1
 42
1.0
 92
        8
 66
     7
 43
1.0
 76
     1
 77
     6
 78
     2
 67
     7
 79
     5
170
     0
171
     0
290
     0
174
     0
 93
       13
 44
0.0
173
     0
291
     1
 45
0.0
1001
ACAD
1000
AcDbSavedByObjectVersion
1070
     0
  0
VISUALSTYLE
  5
1001F
102
{ACAD_XDICTIONARY
360
100A6
102
}
102
{ACAD_REACTORS
330
1001D
102
}
330
1001D
100
AcDbVisualStyle
  2
FlatWithEdges
 70
     1
 71
     2
 72
     1
 73
     1
 90
        2
 40
-0.6
 41
30.0
 62
     5
 63
     7
421
 16777215
 74
     1
 91
        0
 64
     7
 65
   257
 75
     1
175
     1
 42
1.0
 92
        0
 66
   257
 43
1.0
 76
     1
 77
     6
 78
     2
 67
     7
 79
     5
170
     0
171
     0
290
     0
174
     0
 93
       13
 44
0.0
173
     0
291
     1
 45
0.0
1001
ACAD
1000
AcDbSavedByObjectVersion
1070
     0
  0
VISUALSTYLE
  5
10020
102
{ACAD_XDICTIONARY
360
100A8
102
}
102
{ACAD_REACTORS
330
1001D
102
}
330
1001D
100
AcDbVisualStyle
  2
Gouraud
 70
     2
 71
     2
 72
     2
 73
     1
 90
        2
 40
-0.6
 41
30.0
 62
     5
 63
     7
421
 16777215
 74
     0
 91
        0
 64
     7
 65
   257
 75
     1
175
     1
 42
1.0
 92
        0
 66
     7
 43
1.0
 76
     1
 77
     6
 78
     2
 67
     7
 79
     5
170
     0
171
     0
290
     0
174
     0
 93
       13
 44
0.0
173
     0
291
     1
 45
0.0
1001
ACAD
1000
AcDbSavedByObjectVersion
1070
     0
  0
VISUALSTYLE
  5
10021
102
{ACAD_XDICTIONARY
360
100AA
102
}
102
{ACAD_REACTORS
330
1001D
102
}
330
1001D
100
AcDbVisualStyle
  2
GouraudWithEdges
 70
     3
 71
     2
 72
     2
 73
     1
 90
        2
 40
-0.6
 41
30.0
 62
     5
 63
     7
421
 16777215
 74
     1
 91
        0
 64
     7
 65
   257
 75
     1
175
     1
 42
1.0
 92
        0
 66
   257
 43
1.0
 76
     1
 77
     6
 78
     2
 67
     7
 79
     5
170
     0
171
     0
290
     0
174
     0
 93
       13
 44
0.0
173
     0
291
     1
 45
0.0
1001
ACAD
1000
AcDbSavedByObjectVersion
1070
     0
  0
VISUALSTYLE
  5
10025
102
{ACAD_XDICTIONARY
360
100B2
102
}
102
{ACAD_REACTORS
330
1001D
102
}
330
1001D
100
AcDbVisualStyle
  2
Hidden
 70
     6
 71
     1
 72
     2
 73
     2
 90
        0
 40
-0.6
 41
-30.0
 62
     5
 63
     7
421
 16777215
 74
     2
 91
        2
 64
     7
 65
   257
 75
     2
175
     1
 42
40.0
 92
        0
 66
   257
 43
1.0
 76
     1
 77
     6
 78
     2
 67
     7
 79
     3
170
     0
171
     0
290
     0
174
     0
 93
        1
 44
0.0
173
     0
291
     0
 45
0.0
1001
ACAD
1000
AcDbSavedByObjectVersion
1070
     0
  0
VISUALSTYLE
  5
10033
102
{ACAD_XDICTIONARY
360
100CE
102
}
102
{ACAD_REACTORS
330
1001D
102
}
330
1001D
100
AcDbVisualStyle
  2
JitterOff
 70
    20
 71
     2
 72
     2
 73
     0
 90
        0
 40
-0.6
 41
-30.0
 62
     5
 63
     7
421
 16777215
 74
     1
 91
        4
 64
     7
 65
   257
 75
     1
175
     1
 42
1.0
 92
       10
 66
     7
 43
1.0
 76
     1
 77
     6
 78
     2
 67
     7
 79
     5
170
     0
171
     0
290
     0
174
     0
 93
        1
 44
0.0
173
     0
291
     1
 45
0.0
1001
ACAD
1000
AcDbSavedByObjectVersion
1070
     0
  0
VISUALSTYLE
  5
1002B
102
{ACAD_XDICTIONARY
360
100BE
102
}
102
{ACAD_REACTORS
330
1001D
102
}
330
1001D
100
AcDbVisualStyle
  2
Linepattern
 70
    14
 71
     2
 72
     2
 73
     0
 90
        0
 40
-0.6
 41
-30.0
 62
     5
 63
     7
421
 16777215
 74
     1
 91
        4
 64
     7
 65
   257
 75
     7
175
     7
 42
1.0
 92
        8
 66
     7
 43
1.0
 76
     1
 77
     6
 78
     2
 67
     7
 79
     5
170
     0
171
     0
290
     0
174
     0
 93
        1
 44
0.0
173
     0
291
     1
 45
0.0
1001
ACAD
1000
AcDbSavedByObjectVersion
1070
     0
  0
VISUALSTYLE
  5
10034
102
{ACAD_XDICTIONARY
360
100D0
102
}
102
{ACAD_REACTORS
330
1001D
102
}
330
1001D
100
AcDbVisualStyle
  2
OverhangOff
 70
    21
 71
     2
 72
     2
 73
     0
 90
        0
 40
-0.6
 41
-30.0
 62
     5
 63
     7
421
 16777215
 74
     1
 91
        4
 64
     7
 65
   257
 75
     1
175
     1
 42
1.0
 92
        9
 66
     7
 43
1.0
 76
     1
 77
     6
 78
     2
 67
     7
 79
     5
170
     0
171
     0
290
     0
174
     0
 93
        1
 44
0.0
173
     0
291
     1
 45
0.0
1001
ACAD
1000
AcDbSavedByObjectVersion
1070
     0
  0
VISUALSTYLE
  5
10027
102
{ACAD_XDICTIONARY
360
100B6
102
}
102
{ACAD_REACTORS
330
1001D
102
}
330
1001D
100
AcDbVisualStyle
  2
Realistic
 70
     8
 71
     2
 72
     3
 73
     0
 90
        2
 40
-0.6
 41
30.0
 62
     5
 63
     7
421
 16777215
 74
     0
 91
        0
 64
     7
 65
   257
 75
     1
175
     1
 42
1.0
 92
        8
 66
   257
 43
1.0
 76
     1
 77
     6
 78
     2
 67
     7
 79
     3
170
     0
171
     0
290
     0
174
     0
 93
       13
 44
0.0
173
     0
291
     0
 45
0.0
1001
ACAD
1000
AcDbSavedByObjectVersion
1070
     0
  0
VISUALSTYLE
  5
10032
102
{ACAD_XDICTIONARY
360
100CC
102
}
102
{ACAD_REACTORS
330
1001D
102
}
330
1001D
100
AcDbVisualStyle
  2
Shaded
 70
    27
 71
     2
 72
     2
 73
     1
 90
        2
 40
-0.6
 41
30.0
 62
     5
 63
     7
421
 16777215
 74
     0
 91
        4
 64
     7
 65
   257
 75
     1
175
     1
 42
1.0
 92
        8
 66
   257
 43
1.0
 76
     1
 77
     6
 78
     2
 67
     8
425
  7895160
 79
     3
170
     0
171
     0
290
     0
174
     0
 93
        5
 44
0.0
173
     0
291
     0
 45
0.0
1001
ACAD
1000
AcDbSavedByObjectVersion
1070
     0
  0
VISUALSTYLE
  5
10031
102
{ACAD_XDICTIONARY
360
100CA
102
}
102
{ACAD_REACTORS
330
1001D
102
}
330
1001D
100
AcDbVisualStyle
  2
Shaded with edges
 70
    26
 71
     2
 72
     2
 73
     1
 90
        2
 40
-0.6
 41
30.0
 62
     5
 63
     7
421
 16777215
 74
     1
 91
        2
 64
     7
 65
   257
 75
     2
175
     1
 42
1.0
 92
        8
 66
   257
 43
1.0
 76
     1
 77
     6
 78
     2
 67
     7
 79
     3
170
     0
171
     0
290
     0
174
     0
 93
        5
 44
0.0
173
     0
291
     0
 45
0.0
1001
ACAD
1000
AcDbSavedByObjectVersion
1070
     0
  0
VISUALSTYLE
  5
1002E
102
{ACAD_XDICTIONARY
360
100C4
102
}
102
{ACAD_REACTORS
330
1001D
102
}
330
1001D
100
AcDbVisualStyle
  2
Shades of Gray
 70
    23
 71
     2
 72
     2
 73
     3
 90
        0
 40
-0.6
 41
-30.0
 62
     5
 63
     7
421
 16777215
 74
     2
 91
        2
 64
     7
 65
     7
 75
     1
175
     1
 42
40.0
 92
        8
 66
     7
 43
1.0
 76
     1
 77
     6
 78
     2
 67
     7
 79
     3
170
     0
171
     0
290
     0
174
     0
 93
        1
 44
0.0
173
     0
291
     0
 45
0.0
1001
ACAD
1000
AcDbSavedByObjectVersion
1070
     0
  0
VISUALSTYLE
  5
1002F
102
{ACAD_XDICTIONARY
360
100C6
102
}
102
{ACAD_REACTORS
330
1001D
102
}
330
1001D
100
AcDbVisualStyle
  2
Sketchy
 70
    24
 71
     1
 72
     2
 73
     2
 90
        0
 40
-0.6
 41
-30.0
 62
     5
 63
     7
421
 16777215
 74
     2
 91
        2
 64
     7
 65
     7
 75
     1
175
     1
 42
40.0
 92
       11
 66
     7
 43
1.0
 76
     1
 77
     6
 78
     2
 67
     7
 79
     6
170
     0
171
     0
290
     0
174
     0
 93
        1
 44
0.0
173
     0
291
     0
 45
0.0
1001
ACAD
1000
AcDbSavedByObjectVersion
1070
     0
  0
VISUALSTYLE
  5
1002A
102
{ACAD_XDICTIONARY
360
100BC
102
}
102
{ACAD_REACTORS
330
1001D
102
}
330
1001D
100
AcDbVisualStyle
  2
Thicken
 70
    13
 71
     2
 72
     2
 73
     0
 90
        0
 40
-0.6
 41
-30.0
 62
     5
 63
     7
421
 16777215
 74
     1
 91
        4
 64
     7
 65
   257
 75
     1
175
     1
 42
1.0
 92
       12
 66
     7
 43
1.0
 76
     1
 77
     6
 78
     2
 67
     7
 79
     5
170
     0
171
     0
290
     0
174
     0
 93
        1
 44
0.0
173
     0
291
     1
 45
0.0
1001
ACAD
1000
AcDbSavedByObjectVersion
1070
     0
  0
VISUALSTYLE
  5
10024
102
{ACAD_XDICTIONARY
360
100B0
102
}
102
{ACAD_REACTORS
330
1001D
102
}
330
1001D
100
AcDbVisualStyle
  2
Wireframe
 70
     5
 71
     0
 72
     2
 73
     0
 90
        0
 40
-0.6
 41
-30.0
 62
     5
 63
     7
421
 16777215
 74
     1
 91
        4
 64
     7
 65
   257
 75
     1
175
     1
 42
1.0
 92
        0
 66
   257
 43
1.0
 76
     1
 77
     6
 78
     2
 67
     7
 79
     3
170
     0
171
     0
290
     0
174
     0
 93
        1
 44
0.0
173
     0
291
     0
 45
0.0
1001
ACAD
1000
AcDbSavedByObjectVersion
1070
     0
  0
VISUALSTYLE
  5
10030
102
{ACAD_XDICTIONARY
360
100C8
102
}
102
{ACAD_REACTORS
330
1001D
102
}
330
1001D
100
AcDbVisualStyle
  2
X-Ray
 70
    25
 71
     2
 72
     2
 73
     1
 90
        1
 40
0.5
 41
-30.0
 62
     5
 63
     7
421
 16777215
 74
     1
 91
        0
 64
     7
 65
   257
 75
     1
175
     1
 42
1.0
 92
        8
 66
     7
 43
1.0
 76
     1
 77
     6
 78
     2
 67
     7
 79
     3
170
     0
171
     0
290
     0
174
     0
 93
       13
 44
0.0
173
     0
291
     0
 45
0.0
1001
ACAD
1000
AcDbSavedByObjectVersion
1070
     0
  0
DICTIONARYVAR
  5
1009C
102
{ACAD_REACTORS
330
10096
102
}
330
10096
100
DictionaryVariables
280
     0
  1
1:1
  0
DICTIONARYVAR
  5
10098
102
{ACAD_REACTORS
330
10096
102
}
330
10096
100
DictionaryVariables
280
     0
  1
STANDARD
  0
DICTIONARYVAR
  5
10097
102
{ACAD_REACTORS
330
10096
102
}
330
10096
100
DictionaryVariables
280
     0
  1
STANDARD
  0
DICTIONARYVAR
  5
10099
102
{ACAD_REACTORS
330
10096
102
}
330
10096
100
DictionaryVariables
280
     0
  1
Imperial24
  0
DICTIONARYVAR
  5
1009A
102
{ACAD_REACTORS
330
10096
102
}
330
10096
100
DictionaryVariables
280
     0
  1
Imperial24
  0
DICTIONARYVAR
  5
1009E
102
{ACAD_REACTORS
330
10096
102
}
330
10096
100
DictionaryVariables
280
     0
  1
1
  0
DICTIONARYVAR
  5
1009F
102
{ACAD_REACTORS
330
10096
102
}
330
10096
100
DictionaryVariables
280
     0
  1
15
  0
DICTIONARYVAR
  5
1009D
102
{ACAD_REACTORS
330
10096
102
}
330
10096
100
DictionaryVariables
280
     0
  1
0
  0
DICTIONARYVAR
  5
1009B
102
{ACAD_REACTORS
330
10096
102
}
330
10096
100
DictionaryVariables
280
     0
  1
0
  0
DICTIONARYVAR
  5
100A0
102
{ACAD_REACTORS
330
10096
102
}
330
10096
100
DictionaryVariables
280
     0
  1
2
  0
DICTIONARY
  5
100D7
330
10052
100
AcDbDictionary
280
     1
281
     1
  3
ACAD_XREC_ROUNDTRIP
360
100D8
  0
DICTIONARY
  5
1000E
330
1000D
100
AcDbDictionary
280
     1
281
     1
  3
BUMPTILE
360
10010
  3
DIFFUSETILE
360
1000F
  3
OPACITYTILE
360
10013
  3
REFLECTIONTILE
360
10012
  3
REFRACTIONTILE
360
10014
  3
SPECULARTILE
360
10011
  0
DICTIONARY
  5
10006
330
10005
100
AcDbDictionary
280
     1
281
     1
  3
BUMPTILE
360
10008
  3
DIFFUSETILE
360
10007
  3
OPACITYTILE
360
1000B
  3
REFLECTIONTILE
360
1000A
  3
REFRACTIONTILE
360
1000C
  3
SPECULARTILE
360
10009
  0
DICTIONARY
  5
10016
330
10015
100
AcDbDictionary
280
     1
281
     1
  3
BUMPTILE
360
10018
  3
DIFFUSETILE
360
10017
  3
OPACITYTILE
360
1001B
  3
REFLECTIONTILE
360
1001A
  3
REFRACTIONTILE
360
1001C
  3
SPECULARTILE
360
10019
  0
DICTIONARY
  5
100D5
330
10050
100
AcDbDictionary
280
     1
281
     1
  3
ACAD_XREC_ROUNDTRIP
360
100D6
  0
DICTIONARY
  5
100A1
330
10039
100
AcDbDictionary
280
     1
281
     1
  3
ACAD_ROUNDTRIP_2008_TABLESTYLE_CELLSTYLEMAP
360
100A2
  0
DICTIONARY
  5
100AE
330
10023
100
AcDbDictionary
280
     1
281
     1
  3
ACAD_XREC_ROUNDTRIP
360
100AF
  0
DICTIONARY
  5
100AC
330
10022
100
AcDbDictionary
280
     1
281
     1
  3
ACAD_XREC_ROUNDTRIP
360
100AD
  0
DICTIONARY
  5
100BA
330
10029
100
AcDbDictionary
280
     1
281
     1
  3
ACAD_XREC_ROUNDTRIP
360
100BB
  0
DICTIONARY
  5
100C2
330
1002D
100
AcDbDictionary
280
     1
281
     1
  3
ACAD_XREC_ROUNDTRIP
360
100C3
  0
DICTIONARY
  5
100B4
330
10026
100
AcDbDictionary
280
     1
281
     1
  3
ACAD_XREC_ROUNDTRIP
360
100B5
  0
DICTIONARY
  5
100B8
330
10028
100
AcDbDictionary
280
     1
281
     1
  3
ACAD_XREC_ROUNDTRIP
360
100B9
  0
DICTIONARY
  5
100D2
330
10035
100
AcDbDictionary
280
     1
281
     1
  3
ACAD_XREC_ROUNDTRIP
360
100D3
  0
DICTIONARY
  5
100C0
330
1002C
100
AcDbDictionary
280
     1
281
     1
  3
ACAD_XREC_ROUNDTRIP
360
100C1
  0
DICTIONARY
  5
100A4
330
1001E
100
AcDbDictionary
280
     1
281
     1
  3
ACAD_XREC_ROUNDTRIP
360
100A5
  0
DICTIONARY
  5
100A6
330
1001F
100
AcDbDictionary
280
     1
281
     1
  3
ACAD_XREC_ROUNDTRIP
360
100A7
  0
DICTIONARY
  5
100A8
330
10020
100
AcDbDictionary
280
     1
281
     1
  3
ACAD_XREC_ROUNDTRIP
360
100A9
  0
DICTIONARY
  5
100AA
330
10021
100
AcDbDictionary
280
     1
281
     1
  3
ACAD_XREC_ROUNDTRIP
360
100AB
  0
DICTIONARY
  5
100B2
330
10025
100
AcDbDictionary
280
     1
281
     1
  3
ACAD_XREC_ROUNDTRIP
360
100B3
  0
DICTIONARY
  5
100CE
330
10033
100
AcDbDictionary
280
     1
281
     1
  3
ACAD_XREC_ROUNDTRIP
360
100CF
  0
DICTIONARY
  5
100BE
330
1002B
100
AcDbDictionary
280
     1
281
     1
  3
ACAD_XREC_ROUNDTRIP
360
100BF
  0
DICTIONARY
  5
100D0
330
10034
100
AcDbDictionary
280
     1
281
     1
  3
ACAD_XREC_ROUNDTRIP
360
100D1
  0
DICTIONARY
  5
100B6
330
10027
100
AcDbDictionary
280
     1
281
     1
  3
ACAD_XREC_ROUNDTRIP
360
100B7
  0
DICTIONARY
  5
100CC
330
10032
100
AcDbDictionary
280
     1
281
     1
  3
ACAD_XREC_ROUNDTRIP
360
100CD
  0
DICTIONARY
  5
100CA
330
10031
100
AcDbDictionary
280
     1
281
     1
  3
ACAD_XREC_ROUNDTRIP
360
100CB
  0
DICTIONARY
  5
100C4
330
1002E
100
AcDbDictionary
280
     1
281
     1
  3
ACAD_XREC_ROUNDTRIP
360
100C5
  0
DICTIONARY
  5
100C6
330
1002F
100
AcDbDictionary
280
     1
281
     1
  3
ACAD_XREC_ROUNDTRIP
360
100C7
  0
DICTIONARY
  5
100BC
330
1002A
100
AcDbDictionary
280
     1
281
     1
  3
ACAD_XREC_ROUNDTRIP
360
100BD
  0
DICTIONARY
  5
100B0
330
10024
100
AcDbDictionary
280
     1
281
     1
  3
ACAD_XREC_ROUNDTRIP
360
100B1
  0
DICTIONARY
  5
100C8
330
10030
100
AcDbDictionary
280
     1
281
     1
  3
ACAD_XREC_ROUNDTRIP
360
100C9
  0
XRECORD
  5
100D8
102
{ACAD_REACTORS
330
100D7
102
}
330
100D7
100
AcDbXrecord
280
     1
102
DISPLAYNAME
  1
Imperial24
102
FLAGS
 90
        0
  0
XRECORD
  5
10010
102
{ACAD_REACTORS
330
1000E
102
}
330
1000E
100
AcDbXrecord
280
     1
270
     1
271
     1
  0
XRECORD
  5
1000F
102
{ACAD_REACTORS
330
1000E
102
}
330
1000E
100
AcDbXrecord
280
     1
270
     1
271
     1
  0
XRECORD
  5
10013
102
{ACAD_REACTORS
330
1000E
102
}
330
1000E
100
AcDbXrecord
280
     1
270
     1
271
     1
  0
XRECORD
  5
10012
102
{ACAD_REACTORS
330
1000E
102
}
330
1000E
100
AcDbXrecord
280
     1
270
     1
271
     1
  0
XRECORD
  5
10014
102
{ACAD_REACTORS
330
1000E
102
}
330
1000E
100
AcDbXrecord
280
     1
270
     1
271
     1
  0
XRECORD
  5
10011
102
{ACAD_REACTORS
330
1000E
102
}
330
1000E
100
AcDbXrecord
280
     1
270
     1
271
     1
  0
XRECORD
  5
10008
102
{ACAD_REACTORS
330
10006
102
}
330
10006
100
AcDbXrecord
280
     1
270
     1
271
     1
  0
XRECORD
  5
10007
102
{ACAD_REACTORS
330
10006
102
}
330
10006
100
AcDbXrecord
280
     1
270
     1
271
     1
  0
XRECORD
  5
1000B
102
{ACAD_REACTORS
330
10006
102
}
330
10006
100
AcDbXrecord
280
     1
270
     1
271
     1
  0
XRECORD
  5
1000A
102
{ACAD_REACTORS
330
10006
102
}
330
10006
100
AcDbXrecord
280
     1
270
     1
271
     1
  0
XRECORD
  5
1000C
102
{ACAD_REACTORS
330
10006
102
}
330
10006
100
AcDbXrecord
280
     1
270
     1
271
     1
  0
XRECORD
  5
10009
102
{ACAD_REACTORS
330
10006
102
}
330
10006
100
AcDbXrecord
280
     1
270
     1
271
     1
  0
XRECORD
  5
10018
102
{ACAD_REACTORS
330
10016
102
}
330
10016
100
AcDbXrecord
280
     1
270
     1
271
     1
  0
XRECORD
  5
10017
102
{ACAD_REACTORS
330
10016
102
}
330
10016
100
AcDbXrecord
280
     1
270
     1
271
     1
  0
XRECORD
  5
1001B
102
{ACAD_REACTORS
330
10016
102
}
330
10016
100
AcDbXrecord
280
     1
270
     1
271
     1
  0
XRECORD
  5
1001A
102
{ACAD_REACTORS
330
10016
102
}
330
10016
100
AcDbXrecord
280
     1
270
     1
271
     1
  0
XRECORD
  5
1001C
102
{ACAD_REACTORS
330
10016
102
}
330
10016
100
AcDbXrecord
280
     1
270
     1
271
     1
  0
XRECORD
  5
10019
102
{ACAD_REACTORS
330
10016
102
}
330
10016
100
AcDbXrecord
280
     1
270
     1
271
     1
  0
XRECORD
  5
100D6
102
{ACAD_REACTORS
330
100D5
102
}
330
100D5
100
AcDbXrecord
280
     1
102
DISPLAYNAME
  1
Imperial24
102
FLAGS
 90
        0
  0
CELLSTYLEMAP
  5
100A2
102
{ACAD_REACTORS
330
100A1
102
}
330
100A1
100
AcDbCellStyleMap
 90
        3
300
CELLSTYLE
  1
TABLEFORMAT_BEGIN
 90
        5
170
     1
 91
        0
 92
    32768
 62
   257
 93
        1
300
CONTENTFORMAT
  1
CONTENTFORMAT_BEGIN
 90
        0
 91
        0
 92
      512
 93
        0
300

 40
0.0
140
1.0
 94
        5
 62
     0
340
11
144
0.25
309
CONTENTFORMAT_END
171
     0
 94
        0
309
TABLEFORMAT_END
  1
CELLSTYLE_BEGIN
 90
        1
 91
        1
300
_TITLE
309
CELLSTYLE_END
300
CELLSTYLE
  1
TABLEFORMAT_BEGIN
 90
        5
170
     1
 91
        0
 92
        0
 62
   257
 93
        1
300
CONTENTFORMAT
  1
CONTENTFORMAT_BEGIN
 90
        0
 91
        0
 92
      512
 93
        0
300

 40
0.0
140
1.0
 94
        5
 62
     0
340
11
144
0.18
309
CONTENTFORMAT_END
171
     0
 94
        0
309
TABLEFORMAT_END
  1
CELLSTYLE_BEGIN
 90
        2
 91
        1
300
_HEADER
309
CELLSTYLE_END
300
CELLSTYLE
  1
TABLEFORMAT_BEGIN
 90
        5
170
     1
 91
        0
 92
        0
 62
   257
 93
        1
300
CONTENTFORMAT
  1
CONTENTFORMAT_BEGIN
 90
        0
 91
        0
 92
      512
 93
        0
300

 40
0.0
140
1.0
 94
        2
 62
     0
340
11
144
0.18
309
CONTENTFORMAT_END
171
     0
 94
        0
309
TABLEFORMAT_END
  1
CELLSTYLE_BEGIN
 90
        3
 91
        2
300
_DATA
309
CELLSTYLE_END
  0
XRECORD
  5
100AF
102
{ACAD_REACTORS
330
100AE
102
}
330
100AE
100
AcDbXrecord
280
     1
102
RTVSPost2010Prop28
280
     1
102
RTVSPost2010PropOp28
 70
     1
102
RTVSPost2010Prop29
280
     1
102
RTVSPost2010PropOp29
 70
     1
102
RTVSPost2010Prop30
280
     0
102
RTVSPost2010PropOp30
 70
     1
102
RTVSPost2010Prop31
280
     0
102
RTVSPost2010PropOp31
 70
     1
102
RTVSPost2010Prop32
280
     0
102
RTVSPost2010PropOp32
 70
     1
102
RTVSPost2010Prop33
280
     0
102
RTVSPost2010PropOp33
 70
     1
102
RTVSPost2010Prop34
280
     0
102
RTVSPost2010PropOp34
 70
     1
102
RTVSPost2010Prop35
280
     0
102
RTVSPost2010PropOp35
 70
     1
102
RTVSPost2010Prop36
280
     0
102
RTVSPost2010PropOp36
 70
     1
102
RTVSPost2010Prop37
 90
       50
102
RTVSPost2010PropOp37
 70
     1
102
RTVSPost2010Prop38
140
0.0
102
RTVSPost2010PropOp38
 70
     1
102
RTVSPost2010Prop39
140
1.0
102
RTVSPost2010PropOp39
 70
     1
102
RTVSPost2010Prop40
 90
        0
102
RTVSPost2010PropOp40
 70
     1
102
RTVSPost2010Prop41ColorIndex
 90
       18
102
RTVSPost2010Prop41ColorRGB
 90
        0
102
RTVSPost2010PropOp41
 70
     1
102
RTVSPost2010Prop42
 90
       50
102
RTVSPost2010PropOp42
 70
     1
102
RTVSPost2010Prop43
 90
        3
102
RTVSPost2010PropOp43
 70
     1
102
RTVSPost2010Prop44ColorIndex
 90
        5
102
RTVSPost2010Prop44ColorRGB
 90
      255
102
RTVSPost2010PropOp44
 70
     1
102
RTVSPost2010Prop45
280
     0
102
RTVSPost2010PropOp45
 70
     1
102
RTVSPost2010Prop46
 90
       50
102
RTVSPost2010PropOp46
 70
     1
102
RTVSPost2010Prop47
 90
       50
102
RTVSPost2010PropOp47
 70
     1
102
RTVSPost2010Prop48
 90
       50
102
RTVSPost2010PropOp48
 70
     1
102
RTVSPost2010Prop49
280
     0
102
RTVSPost2010PropOp49
 70
     1
102
RTVSPost2010Prop50
 90
       50
102
RTVSPost2010PropOp50
 70
     1
102
RTVSPost2010Prop51ColorIndex
 90
      256
102
RTVSPost2010Prop51ColorRGB
 90
-16777216
102
RTVSPost2010PropOp51
 70
     0
102
RTVSPost2010Prop52
140
1.0
102
RTVSPost2010PropOp52
 70
     0
102
RTVSPost2010Prop53
 90
        2
102
RTVSPost2010PropOp53
 70
     1
102
RTVSPost2010Prop54
  1
strokes_ogs.tif
102
RTVSPost2010PropOp54
 70
     1
102
RTVSPost2010Prop55
280
     0
102
RTVSPost2010PropOp55
 70
     1
102
RTVSPost2010Prop56
140
1.0
102
RTVSPost2010PropOp56
 70
     1
102
RTVSPost2010Prop57
140
1.0
102
RTVSPost2010PropOp57
 70
     1
102
RTVSPropertyOp0
 70
     1
102
RTVSPropertyOp1
 70
     1
102
RTVSPropertyOp2
 70
     1
102
RTVSPropertyOp3
 70
     1
102
RTVSPropertyOp4
 70
     1
102
RTVSPropertyOp5
 70
     1
102
RTVSPropertyOp6
 70
     1
102
RTVSPropertyOp7
 70
     1
102
RTVSPropertyOp8
 70
     1
102
RTVSPropertyOp9
 70
     1
102
RTVSPropertyOp10
 70
     1
102
RTVSPropertyOp11
 70
     1
102
RTVSPropertyOp12
 70
     1
102
RTVSPropertyOp13
 70
     1
102
RTVSPropertyOp14
 70
     1
102
RTVSPropertyOp15
 70
     1
102
RTVSPropertyOp16
 70
     1
102
RTVSPropertyOp17
 70
     1
102
RTVSPropertyOp18
 70
     1
102
RTVSPropertyOp19
 70
     1
102
RTVSPropertyOp20
 70
     1
102
RTVSPropertyOp21
 70
     1
102
RTVSPropertyOp22
 70
     1
102
RTVSPropertyOp23
 70
     1
102
RTVSPropertyOp24
 70
     1
102
RTVSPropertyOp25
 70
     1
102
RTVSPropertyOp26
 70
     1
102
RTVSPropertyOp27
 70
     1
102
RTVSPropertyOp28
 70
     1
102
RTVSPropertyOp29
 70
     1
102
RTVSPropertyOp30
 70
     1
102
RTVSPropertyOp31
 70
     1
102
RTVSPropertyOp32
 70
     1
102
RTVSPropertyOp33
 70
     1
102
RTVSPropertyOp34
 70
     1
102
RTVSPropertyOp35
 70
     1
102
RTVSPropertyOp36
 70
     1
102
RTVSPropertyOp37
 70
     1
102
RTVSPropertyOp38
 70
     1
102
RTVSPropertyOp39
 70
     1
102
RTVSPropertyOp40
 70
     1
102
RTVSPropertyOp41
 70
     1
102
RTVSPropertyOp42
 70
     1
102
RTVSPropertyOp43
 70
     1
102
RTVSPropertyOp44
 70
     1
102
RTVSPropertyOp45
 70
     1
102
RTVSPropertyOp46
 70
     1
102
RTVSPropertyOp47
 70
     1
102
RTVSPropertyOp48
 70
     1
102
RTVSPropertyOp49
 70
     1
102
RTVSPropertyOp50
 70
     1
102
RTVSPropertyOp51
 70
     0
102
RTVSPropertyOp52
 70
     0
102
RTVSPropertyOp53
 70
     1
102
RTVSPropertyOp54
 70
     1
102
RTVSPropertyOp55
 70
     1
102
RTVSPropertyOp56
 70
     1
102
RTVSPropertyOp57
 70
     1
102
RTVSPropertyOp58
 70
     1
102
RTVSPropertyOp59
 70
     1
102
RTVSPropertyOp60
 70
     1
102
RTVSPropertyOp61
 70
     1
102
RTVSPropertyOp62
 70
     1
  0
XRECORD
  5
100AD
102
{ACAD_REACTORS
330
100AC
102
}
330
100AC
100
AcDbXrecord
280
     1
102
RTVSPost2010Prop28
280
     0
102
RTVSPost2010PropOp28
 70
     1
102
RTVSPost2010Prop29
280
     1
102
RTVSPost2010PropOp29
 70
     1
102
RTVSPost2010Prop30
280
     1
102
RTVSPost2010PropOp30
 70
     1
102
RTVSPost2010Prop31
280
     0
102
RTVSPost2010PropOp31
 70
     1
102
RTVSPost2010Prop32
280
     0
102
RTVSPost2010PropOp32
 70
     1
102
RTVSPost2010Prop33
280
     0
102
RTVSPost2010PropOp33
 70
     1
102
RTVSPost2010Prop34
280
     0
102
RTVSPost2010PropOp34
 70
     1
102
RTVSPost2010Prop35
280
     0
102
RTVSPost2010PropOp35
 70
     1
102
RTVSPost2010Prop36
280
     0
102
RTVSPost2010PropOp36
 70
     1
102
RTVSPost2010Prop37
 90
       50
102
RTVSPost2010PropOp37
 70
     1
102
RTVSPost2010Prop38
140
0.0
102
RTVSPost2010PropOp38
 70
     1
102
RTVSPost2010Prop39
140
1.0
102
RTVSPost2010PropOp39
 70
     1
102
RTVSPost2010Prop40
 90
        0
102
RTVSPost2010PropOp40
 70
     1
102
RTVSPost2010Prop41ColorIndex
 90
       18
102
RTVSPost2010Prop41ColorRGB
 90
        0
102
RTVSPost2010PropOp41
 70
     1
102
RTVSPost2010Prop42
 90
       50
102
RTVSPost2010PropOp42
 70
     1
102
RTVSPost2010Prop43
 90
        3
102
RTVSPost2010PropOp43
 70
     1
102
RTVSPost2010Prop44ColorIndex
 90
        5
102
RTVSPost2010Prop44ColorRGB
 90
      255
102
RTVSPost2010PropOp44
 70
     1
102
RTVSPost2010Prop45
280
     0
102
RTVSPost2010PropOp45
 70
     1
102
RTVSPost2010Prop46
 90
       50
102
RTVSPost2010PropOp46
 70
     1
102
RTVSPost2010Prop47
 90
       50
102
RTVSPost2010PropOp47
 70
     1
102
RTVSPost2010Prop48
 90
       50
102
RTVSPost2010PropOp48
 70
     1
102
RTVSPost2010Prop49
280
     0
102
RTVSPost2010PropOp49
 70
     1
102
RTVSPost2010Prop50
 90
       50
102
RTVSPost2010PropOp50
 70
     1
102
RTVSPost2010Prop51ColorIndex
 90
      256
102
RTVSPost2010Prop51ColorRGB
 90
-16777216
102
RTVSPost2010PropOp51
 70
     0
102
RTVSPost2010Prop52
140
1.0
102
RTVSPost2010PropOp52
 70
     0
102
RTVSPost2010Prop53
 90
        2
102
RTVSPost2010PropOp53
 70
     1
102
RTVSPost2010Prop54
  1
strokes_ogs.tif
102
RTVSPost2010PropOp54
 70
     1
102
RTVSPost2010Prop55
280
     0
102
RTVSPost2010PropOp55
 70
     1
102
RTVSPost2010Prop56
140
1.0
102
RTVSPost2010PropOp56
 70
     1
102
RTVSPost2010Prop57
140
1.0
102
RTVSPost2010PropOp57
 70
     1
102
RTVSPropertyOp0
 70
     1
102
RTVSPropertyOp1
 70
     1
102
RTVSPropertyOp2
 70
     1
102
RTVSPropertyOp3
 70
     1
102
RTVSPropertyOp4
 70
     1
102
RTVSPropertyOp5
 70
     1
102
RTVSPropertyOp6
 70
     1
102
RTVSPropertyOp7
 70
     1
102
RTVSPropertyOp8
 70
     1
102
RTVSPropertyOp9
 70
     1
102
RTVSPropertyOp10
 70
     1
102
RTVSPropertyOp11
 70
     1
102
RTVSPropertyOp12
 70
     1
102
RTVSPropertyOp13
 70
     1
102
RTVSPropertyOp14
 70
     1
102
RTVSPropertyOp15
 70
     1
102
RTVSPropertyOp16
 70
     1
102
RTVSPropertyOp17
 70
     1
102
RTVSPropertyOp18
 70
     1
102
RTVSPropertyOp19
 70
     1
102
RTVSPropertyOp20
 70
     1
102
RTVSPropertyOp21
 70
     1
102
RTVSPropertyOp22
 70
     1
102
RTVSPropertyOp23
 70
     1
102
RTVSPropertyOp24
 70
     1
102
RTVSPropertyOp25
 70
     1
102
RTVSPropertyOp26
 70
     1
102
RTVSPropertyOp27
 70
     1
102
RTVSPropertyOp28
 70
     1
102
RTVSPropertyOp29
 70
     1
102
RTVSPropertyOp30
 70
     1
102
RTVSPropertyOp31
 70
     1
102
RTVSPropertyOp32
 70
     1
102
RTVSPropertyOp33
 70
     1
102
RTVSPropertyOp34
 70
     1
102
RTVSPropertyOp35
 70
     1
102
RTVSPropertyOp36
 70
     1
102
RTVSPropertyOp37
 70
     1
102
RTVSPropertyOp38
 70
     1
102
RTVSPropertyOp39
 70
     1
102
RTVSPropertyOp40
 70
     1
102
RTVSPropertyOp41
 70
     1
102
RTVSPropertyOp42
 70
     1
102
RTVSPropertyOp43
 70
     1
102
RTVSPropertyOp44
 70
     1
102
RTVSPropertyOp45
 70
     1
102
RTVSPropertyOp46
 70
     1
102
RTVSPropertyOp47
 70
     1
102
RTVSPropertyOp48
 70
     1
102
RTVSPropertyOp49
 70
     1
102
RTVSPropertyOp50
 70
     1
102
RTVSPropertyOp51
 70
     0
102
RTVSPropertyOp52
 70
     0
102
RTVSPropertyOp53
 70
     1
102
RTVSPropertyOp54
 70
     1
102
RTVSPropertyOp55
 70
     1
102
RTVSPropertyOp56
 70
     1
102
RTVSPropertyOp57
 70
     1
102
RTVSPropertyOp58
 70
     1
102
RTVSPropertyOp59
 70
     1
102
RTVSPropertyOp60
 70
     1
102
RTVSPropertyOp61
 70
     1
102
RTVSPropertyOp62
 70
     1
  0
XRECORD
  5
100BB
102
{ACAD_REACTORS
330
100BA
102
}
330
100BA
100
AcDbXrecord
280
     1
102
RTVSPost2010Prop28
280
     0
102
RTVSPost2010PropOp28
 70
     1
102
RTVSPost2010Prop29
280
     1
102
RTVSPost2010PropOp29
 70
     1
102
RTVSPost2010Prop30
280
     1
102
RTVSPost2010PropOp30
 70
     1
102
RTVSPost2010Prop31
280
     0
102
RTVSPost2010PropOp31
 70
     1
102
RTVSPost2010Prop32
280
     0
102
RTVSPost2010PropOp32
 70
     1
102
RTVSPost2010Prop33
280
     0
102
RTVSPost2010PropOp33
 70
     1
102
RTVSPost2010Prop34
280
     0
102
RTVSPost2010PropOp34
 70
     1
102
RTVSPost2010Prop35
280
     0
102
RTVSPost2010PropOp35
 70
     1
102
RTVSPost2010Prop36
280
     0
102
RTVSPost2010PropOp36
 70
     1
102
RTVSPost2010Prop37
 90
       50
102
RTVSPost2010PropOp37
 70
     1
102
RTVSPost2010Prop38
140
0.0
102
RTVSPost2010PropOp38
 70
     1
102
RTVSPost2010Prop39
140
1.0
102
RTVSPost2010PropOp39
 70
     1
102
RTVSPost2010Prop40
 90
        0
102
RTVSPost2010PropOp40
 70
     1
102
RTVSPost2010Prop41ColorIndex
 90
       18
102
RTVSPost2010Prop41ColorRGB
 90
        0
102
RTVSPost2010PropOp41
 70
     1
102
RTVSPost2010Prop42
 90
       50
102
RTVSPost2010PropOp42
 70
     1
102
RTVSPost2010Prop43
 90
        3
102
RTVSPost2010PropOp43
 70
     1
102
RTVSPost2010Prop44ColorIndex
 90
        5
102
RTVSPost2010Prop44ColorRGB
 90
      255
102
RTVSPost2010PropOp44
 70
     1
102
RTVSPost2010Prop45
280
     0
102
RTVSPost2010PropOp45
 70
     1
102
RTVSPost2010Prop46
 90
       50
102
RTVSPost2010PropOp46
 70
     1
102
RTVSPost2010Prop47
 90
       50
102
RTVSPost2010PropOp47
 70
     1
102
RTVSPost2010Prop48
 90
       50
102
RTVSPost2010PropOp48
 70
     1
102
RTVSPost2010Prop49
280
     0
102
RTVSPost2010PropOp49
 70
     1
102
RTVSPost2010Prop50
 90
       50
102
RTVSPost2010PropOp50
 70
     1
102
RTVSPost2010Prop51ColorIndex
 90
      256
102
RTVSPost2010Prop51ColorRGB
 90
-16777216
102
RTVSPost2010PropOp51
 70
     0
102
RTVSPost2010Prop52
140
1.0
102
RTVSPost2010PropOp52
 70
     0
102
RTVSPost2010Prop53
 90
        2
102
RTVSPost2010PropOp53
 70
     1
102
RTVSPost2010Prop54
  1
strokes_ogs.tif
102
RTVSPost2010PropOp54
 70
     1
102
RTVSPost2010Prop55
280
     0
102
RTVSPost2010PropOp55
 70
     1
102
RTVSPost2010Prop56
140
1.0
102
RTVSPost2010PropOp56
 70
     1
102
RTVSPost2010Prop57
140
1.0
102
RTVSPost2010PropOp57
 70
     1
102
RTVSPropertyOp0
 70
     1
102
RTVSPropertyOp1
 70
     1
102
RTVSPropertyOp2
 70
     1
102
RTVSPropertyOp3
 70
     1
102
RTVSPropertyOp4
 70
     1
102
RTVSPropertyOp5
 70
     1
102
RTVSPropertyOp6
 70
     1
102
RTVSPropertyOp7
 70
     1
102
RTVSPropertyOp8
 70
     1
102
RTVSPropertyOp9
 70
     1
102
RTVSPropertyOp10
 70
     1
102
RTVSPropertyOp11
 70
     1
102
RTVSPropertyOp12
 70
     1
102
RTVSPropertyOp13
 70
     1
102
RTVSPropertyOp14
 70
     1
102
RTVSPropertyOp15
 70
     1
102
RTVSPropertyOp16
 70
     1
102
RTVSPropertyOp17
 70
     1
102
RTVSPropertyOp18
 70
     1
102
RTVSPropertyOp19
 70
     1
102
RTVSPropertyOp20
 70
     1
102
RTVSPropertyOp21
 70
     1
102
RTVSPropertyOp22
 70
     1
102
RTVSPropertyOp23
 70
     1
102
RTVSPropertyOp24
 70
     1
102
RTVSPropertyOp25
 70
     1
102
RTVSPropertyOp26
 70
     1
102
RTVSPropertyOp27
 70
     1
102
RTVSPropertyOp28
 70
     1
102
RTVSPropertyOp29
 70
     1
102
RTVSPropertyOp30
 70
     1
102
RTVSPropertyOp31
 70
     1
102
RTVSPropertyOp32
 70
     1
102
RTVSPropertyOp33
 70
     1
102
RTVSPropertyOp34
 70
     1
102
RTVSPropertyOp35
 70
     1
102
RTVSPropertyOp36
 70
     1
102
RTVSPropertyOp37
 70
     1
102
RTVSPropertyOp38
 70
     1
102
RTVSPropertyOp39
 70
     1
102
RTVSPropertyOp40
 70
     1
102
RTVSPropertyOp41
 70
     1
102
RTVSPropertyOp42
 70
     1
102
RTVSPropertyOp43
 70
     1
102
RTVSPropertyOp44
 70
     1
102
RTVSPropertyOp45
 70
     1
102
RTVSPropertyOp46
 70
     1
102
RTVSPropertyOp47
 70
     1
102
RTVSPropertyOp48
 70
     1
102
RTVSPropertyOp49
 70
     1
102
RTVSPropertyOp50
 70
     1
102
RTVSPropertyOp51
 70
     0
102
RTVSPropertyOp52
 70
     0
102
RTVSPropertyOp53
 70
     1
102
RTVSPropertyOp54
 70
     1
102
RTVSPropertyOp55
 70
     1
102
RTVSPropertyOp56
 70
     1
102
RTVSPropertyOp57
 70
     1
102
RTVSPropertyOp58
 70
     1
102
RTVSPropertyOp59
 70
     1
102
RTVSPropertyOp60
 70
     1
102
RTVSPropertyOp61
 70
     1
102
RTVSPropertyOp62
 70
     1
  0
XRECORD
  5
100C3
102
{ACAD_REACTORS
330
100C2
102
}
330
100C2
100
AcDbXrecord
280
     1
102
RTVSPost2010Prop28
280
     0
102
RTVSPost2010PropOp28
 70
     1
102
RTVSPost2010Prop29
280
     1
102
RTVSPost2010PropOp29
 70
     1
102
RTVSPost2010Prop30
280
     1
102
RTVSPost2010PropOp30
 70
     1
102
RTVSPost2010Prop31
280
     0
102
RTVSPost2010PropOp31
 70
     1
102
RTVSPost2010Prop32
280
     0
102
RTVSPost2010PropOp32
 70
     1
102
RTVSPost2010Prop33
280
     0
102
RTVSPost2010PropOp33
 70
     1
102
RTVSPost2010Prop34
280
     0
102
RTVSPost2010PropOp34
 70
     1
102
RTVSPost2010Prop35
280
     0
102
RTVSPost2010PropOp35
 70
     1
102
RTVSPost2010Prop36
280
     0
102
RTVSPost2010PropOp36
 70
     1
102
RTVSPost2010Prop37
 90
       50
102
RTVSPost2010PropOp37
 70
     1
102
RTVSPost2010Prop38
140
0.0
102
RTVSPost2010PropOp38
 70
     1
102
RTVSPost2010Prop39
140
1.0
102
RTVSPost2010PropOp39
 70
     1
102
RTVSPost2010Prop40
 90
        0
102
RTVSPost2010PropOp40
 70
     1
102
RTVSPost2010Prop41ColorIndex
 90
       18
102
RTVSPost2010Prop41ColorRGB
 90
        0
102
RTVSPost2010PropOp41
 70
     1
102
RTVSPost2010Prop42
 90
       50
102
RTVSPost2010PropOp42
 70
     1
102
RTVSPost2010Prop43
 90
        3
102
RTVSPost2010PropOp43
 70
     1
102
RTVSPost2010Prop44ColorIndex
 90
        5
102
RTVSPost2010Prop44ColorRGB
 90
      255
102
RTVSPost2010PropOp44
 70
     1
102
RTVSPost2010Prop45
280
     0
102
RTVSPost2010PropOp45
 70
     1
102
RTVSPost2010Prop46
 90
       50
102
RTVSPost2010PropOp46
 70
     1
102
RTVSPost2010Prop47
 90
       50
102
RTVSPost2010PropOp47
 70
     1
102
RTVSPost2010Prop48
 90
       50
102
RTVSPost2010PropOp48
 70
     1
102
RTVSPost2010Prop49
280
     0
102
RTVSPost2010PropOp49
 70
     1
102
RTVSPost2010Prop50
 90
       50
102
RTVSPost2010PropOp50
 70
     1
102
RTVSPost2010Prop51ColorIndex
 90
      256
102
RTVSPost2010Prop51ColorRGB
 90
-16777216
102
RTVSPost2010PropOp51
 70
     0
102
RTVSPost2010Prop52
140
1.0
102
RTVSPost2010PropOp52
 70
     0
102
RTVSPost2010Prop53
 90
        2
102
RTVSPost2010PropOp53
 70
     1
102
RTVSPost2010Prop54
  1
strokes_ogs.tif
102
RTVSPost2010PropOp54
 70
     1
102
RTVSPost2010Prop55
280
     0
102
RTVSPost2010PropOp55
 70
     1
102
RTVSPost2010Prop56
140
1.0
102
RTVSPost2010PropOp56
 70
     1
102
RTVSPost2010Prop57
140
1.0
102
RTVSPost2010PropOp57
 70
     1
102
RTVSPropertyOp0
 70
     1
102
RTVSPropertyOp1
 70
     1
102
RTVSPropertyOp2
 70
     1
102
RTVSPropertyOp3
 70
     1
102
RTVSPropertyOp4
 70
     1
102
RTVSPropertyOp5
 70
     1
102
RTVSPropertyOp6
 70
     1
102
RTVSPropertyOp7
 70
     1
102
RTVSPropertyOp8
 70
     1
102
RTVSPropertyOp9
 70
     1
102
RTVSPropertyOp10
 70
     1
102
RTVSPropertyOp11
 70
     1
102
RTVSPropertyOp12
 70
     1
102
RTVSPropertyOp13
 70
     1
102
RTVSPropertyOp14
 70
     1
102
RTVSPropertyOp15
 70
     1
102
RTVSPropertyOp16
 70
     1
102
RTVSPropertyOp17
 70
     1
102
RTVSPropertyOp18
 70
     1
102
RTVSPropertyOp19
 70
     1
102
RTVSPropertyOp20
 70
     1
102
RTVSPropertyOp21
 70
     1
102
RTVSPropertyOp22
 70
     1
102
RTVSPropertyOp23
 70
     1
102
RTVSPropertyOp24
 70
     1
102
RTVSPropertyOp25
 70
     1
102
RTVSPropertyOp26
 70
     1
102
RTVSPropertyOp27
 70
     1
102
RTVSPropertyOp28
 70
     1
102
RTVSPropertyOp29
 70
     1
102
RTVSPropertyOp30
 70
     1
102
RTVSPropertyOp31
 70
     1
102
RTVSPropertyOp32
 70
     1
102
RTVSPropertyOp33
 70
     1
102
RTVSPropertyOp34
 70
     1
102
RTVSPropertyOp35
 70
     1
102
RTVSPropertyOp36
 70
     1
102
RTVSPropertyOp37
 70
     1
102
RTVSPropertyOp38
 70
     1
102
RTVSPropertyOp39
 70
     1
102
RTVSPropertyOp40
 70
     1
102
RTVSPropertyOp41
 70
     1
102
RTVSPropertyOp42
 70
     1
102
RTVSPropertyOp43
 70
     1
102
RTVSPropertyOp44
 70
     1
102
RTVSPropertyOp45
 70
     1
102
RTVSPropertyOp46
 70
     1
102
RTVSPropertyOp47
 70
     1
102
RTVSPropertyOp48
 70
     1
102
RTVSPropertyOp49
 70
     1
102
RTVSPropertyOp50
 70
     1
102
RTVSPropertyOp51
 70
     0
102
RTVSPropertyOp52
 70
     0
102
RTVSPropertyOp53
 70
     1
102
RTVSPropertyOp54
 70
     1
102
RTVSPropertyOp55
 70
     1
102
RTVSPropertyOp56
 70
     1
102
RTVSPropertyOp57
 70
     1
102
RTVSPropertyOp58
 70
     1
102
RTVSPropertyOp59
 70
     1
102
RTVSPropertyOp60
 70
     1
102
RTVSPropertyOp61
 70
     1
102
RTVSPropertyOp62
 70
     1
  0
XRECORD
  5
100B5
102
{ACAD_REACTORS
330
100B4
102
}
330
100B4
100
AcDbXrecord
280
     1
102
RTVSPost2010Prop28
280
     0
102
RTVSPost2010PropOp28
 70
     1
102
RTVSPost2010Prop29
280
     1
102
RTVSPost2010PropOp29
 70
     1
102
RTVSPost2010Prop30
280
     1
102
RTVSPost2010PropOp30
 70
     1
102
RTVSPost2010Prop31
280
     0
102
RTVSPost2010PropOp31
 70
     1
102
RTVSPost2010Prop32
280
     0
102
RTVSPost2010PropOp32
 70
     1
102
RTVSPost2010Prop33
280
     0
102
RTVSPost2010PropOp33
 70
     1
102
RTVSPost2010Prop34
280
     0
102
RTVSPost2010PropOp34
 70
     1
102
RTVSPost2010Prop35
280
     0
102
RTVSPost2010PropOp35
 70
     1
102
RTVSPost2010Prop36
280
     0
102
RTVSPost2010PropOp36
 70
     1
102
RTVSPost2010Prop37
 90
       50
102
RTVSPost2010PropOp37
 70
     1
102
RTVSPost2010Prop38
140
0.0
102
RTVSPost2010PropOp38
 70
     1
102
RTVSPost2010Prop39
140
1.0
102
RTVSPost2010PropOp39
 70
     1
102
RTVSPost2010Prop40
 90
        0
102
RTVSPost2010PropOp40
 70
     1
102
RTVSPost2010Prop41ColorIndex
 90
       18
102
RTVSPost2010Prop41ColorRGB
 90
        0
102
RTVSPost2010PropOp41
 70
     1
102
RTVSPost2010Prop42
 90
       50
102
RTVSPost2010PropOp42
 70
     1
102
RTVSPost2010Prop43
 90
        3
102
RTVSPost2010PropOp43
 70
     1
102
RTVSPost2010Prop44ColorIndex
 90
        5
102
RTVSPost2010Prop44ColorRGB
 90
      255
102
RTVSPost2010PropOp44
 70
     1
102
RTVSPost2010Prop45
280
     0
102
RTVSPost2010PropOp45
 70
     1
102
RTVSPost2010Prop46
 90
       50
102
RTVSPost2010PropOp46
 70
     1
102
RTVSPost2010Prop47
 90
       50
102
RTVSPost2010PropOp47
 70
     1
102
RTVSPost2010Prop48
 90
       50
102
RTVSPost2010PropOp48
 70
     1
102
RTVSPost2010Prop49
280
     0
102
RTVSPost2010PropOp49
 70
     1
102
RTVSPost2010Prop50
 90
       50
102
RTVSPost2010PropOp50
 70
     1
102
RTVSPost2010Prop51ColorIndex
 90
      256
102
RTVSPost2010Prop51ColorRGB
 90
-16777216
102
RTVSPost2010PropOp51
 70
     0
102
RTVSPost2010Prop52
140
1.0
102
RTVSPost2010PropOp52
 70
     0
102
RTVSPost2010Prop53
 90
        2
102
RTVSPost2010PropOp53
 70
     1
102
RTVSPost2010Prop54
  1
strokes_ogs.tif
102
RTVSPost2010PropOp54
 70
     1
102
RTVSPost2010Prop55
280
     0
102
RTVSPost2010PropOp55
 70
     1
102
RTVSPost2010Prop56
140
1.0
102
RTVSPost2010PropOp56
 70
     1
102
RTVSPost2010Prop57
140
1.0
102
RTVSPost2010PropOp57
 70
     1
102
RTVSPropertyOp0
 70
     1
102
RTVSPropertyOp1
 70
     1
102
RTVSPropertyOp2
 70
     1
102
RTVSPropertyOp3
 70
     1
102
RTVSPropertyOp4
 70
     1
102
RTVSPropertyOp5
 70
     1
102
RTVSPropertyOp6
 70
     1
102
RTVSPropertyOp7
 70
     1
102
RTVSPropertyOp8
 70
     1
102
RTVSPropertyOp9
 70
     1
102
RTVSPropertyOp10
 70
     1
102
RTVSPropertyOp11
 70
     1
102
RTVSPropertyOp12
 70
     1
102
RTVSPropertyOp13
 70
     1
102
RTVSPropertyOp14
 70
     1
102
RTVSPropertyOp15
 70
     1
102
RTVSPropertyOp16
 70
     1
102
RTVSPropertyOp17
 70
     1
102
RTVSPropertyOp18
 70
     1
102
RTVSPropertyOp19
 70
     1
102
RTVSPropertyOp20
 70
     1
102
RTVSPropertyOp21
 70
     1
102
RTVSPropertyOp22
 70
     1
102
RTVSPropertyOp23
 70
     1
102
RTVSPropertyOp24
 70
     1
102
RTVSPropertyOp25
 70
     1
102
RTVSPropertyOp26
 70
     1
102
RTVSPropertyOp27
 70
     1
102
RTVSPropertyOp28
 70
     1
102
RTVSPropertyOp29
 70
     1
102
RTVSPropertyOp30
 70
     1
102
RTVSPropertyOp31
 70
     1
102
RTVSPropertyOp32
 70
     1
102
RTVSPropertyOp33
 70
     1
102
RTVSPropertyOp34
 70
     1
102
RTVSPropertyOp35
 70
     1
102
RTVSPropertyOp36
 70
     1
102
RTVSPropertyOp37
 70
     1
102
RTVSPropertyOp38
 70
     1
102
RTVSPropertyOp39
 70
     1
102
RTVSPropertyOp40
 70
     1
102
RTVSPropertyOp41
 70
     1
102
RTVSPropertyOp42
 70
     1
102
RTVSPropertyOp43
 70
     1
102
RTVSPropertyOp44
 70
     1
102
RTVSPropertyOp45
 70
     1
102
RTVSPropertyOp46
 70
     1
102
RTVSPropertyOp47
 70
     1
102
RTVSPropertyOp48
 70
     1
102
RTVSPropertyOp49
 70
     1
102
RTVSPropertyOp50
 70
     1
102
RTVSPropertyOp51
 70
     0
102
RTVSPropertyOp52
 70
     0
102
RTVSPropertyOp53
 70
     1
102
RTVSPropertyOp54
 70
     1
102
RTVSPropertyOp55
 70
     1
102
RTVSPropertyOp56
 70
     1
102
RTVSPropertyOp57
 70
     1
102
RTVSPropertyOp58
 70
     1
102
RTVSPropertyOp59
 70
     1
102
RTVSPropertyOp60
 70
     1
102
RTVSPropertyOp61
 70
     1
102
RTVSPropertyOp62
 70
     1
  0
XRECORD
  5
100B9
102
{ACAD_REACTORS
330
100B8
102
}
330
100B8
100
AcDbXrecord
280
     1
102
RTVSPost2010Prop28
280
     0
102
RTVSPost2010PropOp28
 70
     1
102
RTVSPost2010Prop29
280
     1
102
RTVSPost2010PropOp29
 70
     1
102
RTVSPost2010Prop30
280
     1
102
RTVSPost2010PropOp30
 70
     1
102
RTVSPost2010Prop31
280
     0
102
RTVSPost2010PropOp31
 70
     1
102
RTVSPost2010Prop32
280
     0
102
RTVSPost2010PropOp32
 70
     1
102
RTVSPost2010Prop33
280
     0
102
RTVSPost2010PropOp33
 70
     1
102
RTVSPost2010Prop34
280
     0
102
RTVSPost2010PropOp34
 70
     1
102
RTVSPost2010Prop35
280
     0
102
RTVSPost2010PropOp35
 70
     1
102
RTVSPost2010Prop36
280
     0
102
RTVSPost2010PropOp36
 70
     1
102
RTVSPost2010Prop37
 90
       50
102
RTVSPost2010PropOp37
 70
     1
102
RTVSPost2010Prop38
140
0.0
102
RTVSPost2010PropOp38
 70
     1
102
RTVSPost2010Prop39
140
1.0
102
RTVSPost2010PropOp39
 70
     1
102
RTVSPost2010Prop40
 90
        0
102
RTVSPost2010PropOp40
 70
     1
102
RTVSPost2010Prop41ColorIndex
 90
       18
102
RTVSPost2010Prop41ColorRGB
 90
        0
102
RTVSPost2010PropOp41
 70
     1
102
RTVSPost2010Prop42
 90
       50
102
RTVSPost2010PropOp42
 70
     1
102
RTVSPost2010Prop43
 90
        3
102
RTVSPost2010PropOp43
 70
     1
102
RTVSPost2010Prop44ColorIndex
 90
        5
102
RTVSPost2010Prop44ColorRGB
 90
      255
102
RTVSPost2010PropOp44
 70
     1
102
RTVSPost2010Prop45
280
     0
102
RTVSPost2010PropOp45
 70
     1
102
RTVSPost2010Prop46
 90
       50
102
RTVSPost2010PropOp46
 70
     1
102
RTVSPost2010Prop47
 90
       50
102
RTVSPost2010PropOp47
 70
     1
102
RTVSPost2010Prop48
 90
       50
102
RTVSPost2010PropOp48
 70
     1
102
RTVSPost2010Prop49
280
     0
102
RTVSPost2010PropOp49
 70
     1
102
RTVSPost2010Prop50
 90
       50
102
RTVSPost2010PropOp50
 70
     1
102
RTVSPost2010Prop51ColorIndex
 90
      256
102
RTVSPost2010Prop51ColorRGB
 90
-16777216
102
RTVSPost2010PropOp51
 70
     0
102
RTVSPost2010Prop52
140
1.0
102
RTVSPost2010PropOp52
 70
     0
102
RTVSPost2010Prop53
 90
        2
102
RTVSPost2010PropOp53
 70
     1
102
RTVSPost2010Prop54
  1
strokes_ogs.tif
102
RTVSPost2010PropOp54
 70
     1
102
RTVSPost2010Prop55
280
     0
102
RTVSPost2010PropOp55
 70
     1
102
RTVSPost2010Prop56
140
1.0
102
RTVSPost2010PropOp56
 70
     1
102
RTVSPost2010Prop57
140
1.0
102
RTVSPost2010PropOp57
 70
     1
102
RTVSPropertyOp0
 70
     1
102
RTVSPropertyOp1
 70
     1
102
RTVSPropertyOp2
 70
     1
102
RTVSPropertyOp3
 70
     1
102
RTVSPropertyOp4
 70
     1
102
RTVSPropertyOp5
 70
     1
102
RTVSPropertyOp6
 70
     1
102
RTVSPropertyOp7
 70
     1
102
RTVSPropertyOp8
 70
     1
102
RTVSPropertyOp9
 70
     1
102
RTVSPropertyOp10
 70
     1
102
RTVSPropertyOp11
 70
     1
102
RTVSPropertyOp12
 70
     1
102
RTVSPropertyOp13
 70
     1
102
RTVSPropertyOp14
 70
     1
102
RTVSPropertyOp15
 70
     1
102
RTVSPropertyOp16
 70
     1
102
RTVSPropertyOp17
 70
     1
102
RTVSPropertyOp18
 70
     1
102
RTVSPropertyOp19
 70
     1
102
RTVSPropertyOp20
 70
     1
102
RTVSPropertyOp21
 70
     1
102
RTVSPropertyOp22
 70
     1
102
RTVSPropertyOp23
 70
     1
102
RTVSPropertyOp24
 70
     1
102
RTVSPropertyOp25
 70
     1
102
RTVSPropertyOp26
 70
     1
102
RTVSPropertyOp27
 70
     1
102
RTVSPropertyOp28
 70
     1
102
RTVSPropertyOp29
 70
     1
102
RTVSPropertyOp30
 70
     1
102
RTVSPropertyOp31
 70
     1
102
RTVSPropertyOp32
 70
     1
102
RTVSPropertyOp33
 70
     1
102
RTVSPropertyOp34
 70
     1
102
RTVSPropertyOp35
 70
     1
102
RTVSPropertyOp36
 70
     1
102
RTVSPropertyOp37
 70
     1
102
RTVSPropertyOp38
 70
     1
102
RTVSPropertyOp39
 70
     1
102
RTVSPropertyOp40
 70
     1
102
RTVSPropertyOp41
 70
     1
102
RTVSPropertyOp42
 70
     1
102
RTVSPropertyOp43
 70
     1
102
RTVSPropertyOp44
 70
     1
102
RTVSPropertyOp45
 70
     1
102
RTVSPropertyOp46
 70
     1
102
RTVSPropertyOp47
 70
     1
102
RTVSPropertyOp48
 70
     1
102
RTVSPropertyOp49
 70
     1
102
RTVSPropertyOp50
 70
     1
102
RTVSPropertyOp51
 70
     0
102
RTVSPropertyOp52
 70
     0
102
RTVSPropertyOp53
 70
     1
102
RTVSPropertyOp54
 70
     1
102
RTVSPropertyOp55
 70
     1
102
RTVSPropertyOp56
 70
     1
102
RTVSPropertyOp57
 70
     1
102
RTVSPropertyOp58
 70
     1
102
RTVSPropertyOp59
 70
     1
102
RTVSPropertyOp60
 70
     1
102
RTVSPropertyOp61
 70
     1
102
RTVSPropertyOp62
 70
     1
  0
XRECORD
  5
100D3
102
{ACAD_REACTORS
330
100D2
102
}
330
100D2
100
AcDbXrecord
280
     1
102
RTVSPost2010Prop28
280
     0
102
RTVSPost2010PropOp28
 70
     1
102
RTVSPost2010Prop29
280
     1
102
RTVSPost2010PropOp29
 70
     1
102
RTVSPost2010Prop30
280
     1
102
RTVSPost2010PropOp30
 70
     1
102
RTVSPost2010Prop31
280
     0
102
RTVSPost2010PropOp31
 70
     1
102
RTVSPost2010Prop32
280
     0
102
RTVSPost2010PropOp32
 70
     1
102
RTVSPost2010Prop33
280
     0
102
RTVSPost2010PropOp33
 70
     1
102
RTVSPost2010Prop34
280
     0
102
RTVSPost2010PropOp34
 70
     1
102
RTVSPost2010Prop35
280
     0
102
RTVSPost2010PropOp35
 70
     1
102
RTVSPost2010Prop36
280
     0
102
RTVSPost2010PropOp36
 70
     1
102
RTVSPost2010Prop37
 90
       50
102
RTVSPost2010PropOp37
 70
     0
102
RTVSPost2010Prop38
140
0.0
102
RTVSPost2010PropOp38
 70
     0
102
RTVSPost2010Prop39
140
1.0
102
RTVSPost2010PropOp39
 70
     0
102
RTVSPost2010Prop40
 90
        0
102
RTVSPost2010PropOp40
 70
     0
102
RTVSPost2010Prop41ColorIndex
 90
       18
102
RTVSPost2010Prop41ColorRGB
 90
        0
102
RTVSPost2010PropOp41
 70
     0
102
RTVSPost2010Prop42
 90
       50
102
RTVSPost2010PropOp42
 70
     0
102
RTVSPost2010Prop43
 90
        3
102
RTVSPost2010PropOp43
 70
     0
102
RTVSPost2010Prop44ColorIndex
 90
        5
102
RTVSPost2010Prop44ColorRGB
 90
      255
102
RTVSPost2010PropOp44
 70
     0
102
RTVSPost2010Prop45
280
     0
102
RTVSPost2010PropOp45
 70
     1
102
RTVSPost2010Prop46
 90
       50
102
RTVSPost2010PropOp46
 70
     0
102
RTVSPost2010Prop47
 90
       50
102
RTVSPost2010PropOp47
 70
     0
102
RTVSPost2010Prop48
 90
       50
102
RTVSPost2010PropOp48
 70
     0
102
RTVSPost2010Prop49
280
     0
102
RTVSPost2010PropOp49
 70
     1
102
RTVSPost2010Prop50
 90
       50
102
RTVSPost2010PropOp50
 70
     0
102
RTVSPost2010Prop51ColorIndex
 90
      256
102
RTVSPost2010Prop51ColorRGB
 90
-16777216
102
RTVSPost2010PropOp51
 70
     0
102
RTVSPost2010Prop52
140
1.0
102
RTVSPost2010PropOp52
 70
     0
102
RTVSPost2010Prop53
 90
        2
102
RTVSPost2010PropOp53
 70
     0
102
RTVSPost2010Prop54
  1
strokes_ogs.tif
102
RTVSPost2010PropOp54
 70
     0
102
RTVSPost2010Prop55
280
     0
102
RTVSPost2010PropOp55
 70
     1
102
RTVSPost2010Prop56
140
1.0
102
RTVSPost2010PropOp56
 70
     0
102
RTVSPost2010Prop57
140
1.0
102
RTVSPost2010PropOp57
 70
     0
102
RTVSPropertyOp0
 70
     0
102
RTVSPropertyOp1
 70
     0
102
RTVSPropertyOp2
 70
     0
102
RTVSPropertyOp3
 70
     0
102
RTVSPropertyOp4
 70
     0
102
RTVSPropertyOp5
 70
     0
102
RTVSPropertyOp6
 70
     0
102
RTVSPropertyOp7
 70
     0
102
RTVSPropertyOp8
 70
     0
102
RTVSPropertyOp9
 70
     0
102
RTVSPropertyOp10
 70
     0
102
RTVSPropertyOp11
 70
     0
102
RTVSPropertyOp12
 70
     0
102
RTVSPropertyOp13
 70
     0
102
RTVSPropertyOp14
 70
     2
102
RTVSPropertyOp15
 70
     0
102
RTVSPropertyOp16
 70
     0
102
RTVSPropertyOp17
 70
     0
102
RTVSPropertyOp18
 70
     0
102
RTVSPropertyOp19
 70
     0
102
RTVSPropertyOp20
 70
     0
102
RTVSPropertyOp21
 70
     0
102
RTVSPropertyOp22
 70
     0
102
RTVSPropertyOp23
 70
     0
102
RTVSPropertyOp24
 70
     0
102
RTVSPropertyOp25
 70
     0
102
RTVSPropertyOp26
 70
     0
102
RTVSPropertyOp27
 70
     0
102
RTVSPropertyOp28
 70
     1
102
RTVSPropertyOp29
 70
     1
102
RTVSPropertyOp30
 70
     1
102
RTVSPropertyOp31
 70
     1
102
RTVSPropertyOp32
 70
     1
102
RTVSPropertyOp33
 70
     1
102
RTVSPropertyOp34
 70
     1
102
RTVSPropertyOp35
 70
     1
102
RTVSPropertyOp36
 70
     1
102
RTVSPropertyOp37
 70
     0
102
RTVSPropertyOp38
 70
     0
102
RTVSPropertyOp39
 70
     0
102
RTVSPropertyOp40
 70
     0
102
RTVSPropertyOp41
 70
     0
102
RTVSPropertyOp42
 70
     0
102
RTVSPropertyOp43
 70
     0
102
RTVSPropertyOp44
 70
     0
102
RTVSPropertyOp45
 70
     1
102
RTVSPropertyOp46
 70
     0
102
RTVSPropertyOp47
 70
     0
102
RTVSPropertyOp48
 70
     0
102
RTVSPropertyOp49
 70
     1
102
RTVSPropertyOp50
 70
     0
102
RTVSPropertyOp51
 70
     0
102
RTVSPropertyOp52
 70
     0
102
RTVSPropertyOp53
 70
     0
102
RTVSPropertyOp54
 70
     0
102
RTVSPropertyOp55
 70
     1
102
RTVSPropertyOp56
 70
     0
102
RTVSPropertyOp57
 70
     0
102
RTVSPropertyOp58
 70
     0
102
RTVSPropertyOp59
 70
     0
102
RTVSPropertyOp60
 70
     0
102
RTVSPropertyOp61
 70
     0
102
RTVSPropertyOp62
 70
     0
  0
XRECORD
  5
100C1
102
{ACAD_REACTORS
330
100C0
102
}
330
100C0
100
AcDbXrecord
280
     1
102
RTVSPost2010Prop28
280
     0
102
RTVSPost2010PropOp28
 70
     1
102
RTVSPost2010Prop29
280
     1
102
RTVSPost2010PropOp29
 70
     1
102
RTVSPost2010Prop30
280
     1
102
RTVSPost2010PropOp30
 70
     1
102
RTVSPost2010Prop31
280
     0
102
RTVSPost2010PropOp31
 70
     1
102
RTVSPost2010Prop32
280
     0
102
RTVSPost2010PropOp32
 70
     1
102
RTVSPost2010Prop33
280
     0
102
RTVSPost2010PropOp33
 70
     1
102
RTVSPost2010Prop34
280
     0
102
RTVSPost2010PropOp34
 70
     1
102
RTVSPost2010Prop35
280
     0
102
RTVSPost2010PropOp35
 70
     1
102
RTVSPost2010Prop36
280
     0
102
RTVSPost2010PropOp36
 70
     1
102
RTVSPost2010Prop37
 90
       50
102
RTVSPost2010PropOp37
 70
     1
102
RTVSPost2010Prop38
140
0.0
102
RTVSPost2010PropOp38
 70
     1
102
RTVSPost2010Prop39
140
1.0
102
RTVSPost2010PropOp39
 70
     1
102
RTVSPost2010Prop40
 90
        0
102
RTVSPost2010PropOp40
 70
     1
102
RTVSPost2010Prop41ColorIndex
 90
       18
102
RTVSPost2010Prop41ColorRGB
 90
        0
102
RTVSPost2010PropOp41
 70
     1
102
RTVSPost2010Prop42
 90
       50
102
RTVSPost2010PropOp42
 70
     1
102
RTVSPost2010Prop43
 90
        3
102
RTVSPost2010PropOp43
 70
     1
102
RTVSPost2010Prop44ColorIndex
 90
        5
102
RTVSPost2010Prop44ColorRGB
 90
      255
102
RTVSPost2010PropOp44
 70
     1
102
RTVSPost2010Prop45
280
     0
102
RTVSPost2010PropOp45
 70
     1
102
RTVSPost2010Prop46
 90
       50
102
RTVSPost2010PropOp46
 70
     1
102
RTVSPost2010Prop47
 90
       50
102
RTVSPost2010PropOp47
 70
     1
102
RTVSPost2010Prop48
 90
       50
102
RTVSPost2010PropOp48
 70
     1
102
RTVSPost2010Prop49
280
     0
102
RTVSPost2010PropOp49
 70
     1
102
RTVSPost2010Prop50
 90
       50
102
RTVSPost2010PropOp50
 70
     1
102
RTVSPost2010Prop51ColorIndex
 90
      256
102
RTVSPost2010Prop51ColorRGB
 90
-16777216
102
RTVSPost2010PropOp51
 70
     0
102
RTVSPost2010Prop52
140
1.0
102
RTVSPost2010PropOp52
 70
     0
102
RTVSPost2010Prop53
 90
        2
102
RTVSPost2010PropOp53
 70
     1
102
RTVSPost2010Prop54
  1
strokes_ogs.tif
102
RTVSPost2010PropOp54
 70
     1
102
RTVSPost2010Prop55
280
     0
102
RTVSPost2010PropOp55
 70
     1
102
RTVSPost2010Prop56
140
1.0
102
RTVSPost2010PropOp56
 70
     1
102
RTVSPost2010Prop57
140
1.0
102
RTVSPost2010PropOp57
 70
     1
102
RTVSPropertyOp0
 70
     1
102
RTVSPropertyOp1
 70
     1
102
RTVSPropertyOp2
 70
     1
102
RTVSPropertyOp3
 70
     1
102
RTVSPropertyOp4
 70
     1
102
RTVSPropertyOp5
 70
     1
102
RTVSPropertyOp6
 70
     1
102
RTVSPropertyOp7
 70
     1
102
RTVSPropertyOp8
 70
     1
102
RTVSPropertyOp9
 70
     1
102
RTVSPropertyOp10
 70
     1
102
RTVSPropertyOp11
 70
     1
102
RTVSPropertyOp12
 70
     1
102
RTVSPropertyOp13
 70
     1
102
RTVSPropertyOp14
 70
     1
102
RTVSPropertyOp15
 70
     1
102
RTVSPropertyOp16
 70
     1
102
RTVSPropertyOp17
 70
     1
102
RTVSPropertyOp18
 70
     1
102
RTVSPropertyOp19
 70
     1
102
RTVSPropertyOp20
 70
     1
102
RTVSPropertyOp21
 70
     1
102
RTVSPropertyOp22
 70
     1
102
RTVSPropertyOp23
 70
     1
102
RTVSPropertyOp24
 70
     1
102
RTVSPropertyOp25
 70
     1
102
RTVSPropertyOp26
 70
     1
102
RTVSPropertyOp27
 70
     1
102
RTVSPropertyOp28
 70
     1
102
RTVSPropertyOp29
 70
     1
102
RTVSPropertyOp30
 70
     1
102
RTVSPropertyOp31
 70
     1
102
RTVSPropertyOp32
 70
     1
102
RTVSPropertyOp33
 70
     1
102
RTVSPropertyOp34
 70
     1
102
RTVSPropertyOp35
 70
     1
102
RTVSPropertyOp36
 70
     1
102
RTVSPropertyOp37
 70
     1
102
RTVSPropertyOp38
 70
     1
102
RTVSPropertyOp39
 70
     1
102
RTVSPropertyOp40
 70
     1
102
RTVSPropertyOp41
 70
     1
102
RTVSPropertyOp42
 70
     1
102
RTVSPropertyOp43
 70
     1
102
RTVSPropertyOp44
 70
     1
102
RTVSPropertyOp45
 70
     1
102
RTVSPropertyOp46
 70
     1
102
RTVSPropertyOp47
 70
     1
102
RTVSPropertyOp48
 70
     1
102
RTVSPropertyOp49
 70
     1
102
RTVSPropertyOp50
 70
     1
102
RTVSPropertyOp51
 70
     0
102
RTVSPropertyOp52
 70
     0
102
RTVSPropertyOp53
 70
     1
102
RTVSPropertyOp54
 70
     1
102
RTVSPropertyOp55
 70
     1
102
RTVSPropertyOp56
 70
     1
102
RTVSPropertyOp57
 70
     1
102
RTVSPropertyOp58
 70
     1
102
RTVSPropertyOp59
 70
     1
102
RTVSPropertyOp60
 70
     1
102
RTVSPropertyOp61
 70
     1
102
RTVSPropertyOp62
 70
     1
  0
XRECORD
  5
100A5
102
{ACAD_REACTORS
330
100A4
102
}
330
100A4
100
AcDbXrecord
280
     1
102
RTVSPost2010Prop28
280
     0
102
RTVSPost2010PropOp28
 70
     1
102
RTVSPost2010Prop29
280
     1
102
RTVSPost2010PropOp29
 70
     1
102
RTVSPost2010Prop30
280
     1
102
RTVSPost2010PropOp30
 70
     1
102
RTVSPost2010Prop31
280
     0
102
RTVSPost2010PropOp31
 70
     1
102
RTVSPost2010Prop32
280
     0
102
RTVSPost2010PropOp32
 70
     1
102
RTVSPost2010Prop33
280
     0
102
RTVSPost2010PropOp33
 70
     1
102
RTVSPost2010Prop34
280
     0
102
RTVSPost2010PropOp34
 70
     1
102
RTVSPost2010Prop35
280
     0
102
RTVSPost2010PropOp35
 70
     1
102
RTVSPost2010Prop36
280
     0
102
RTVSPost2010PropOp36
 70
     1
102
RTVSPost2010Prop37
 90
       50
102
RTVSPost2010PropOp37
 70
     1
102
RTVSPost2010Prop38
140
0.0
102
RTVSPost2010PropOp38
 70
     1
102
RTVSPost2010Prop39
140
1.0
102
RTVSPost2010PropOp39
 70
     1
102
RTVSPost2010Prop40
 90
        0
102
RTVSPost2010PropOp40
 70
     1
102
RTVSPost2010Prop41ColorIndex
 90
       18
102
RTVSPost2010Prop41ColorRGB
 90
        0
102
RTVSPost2010PropOp41
 70
     1
102
RTVSPost2010Prop42
 90
       50
102
RTVSPost2010PropOp42
 70
     1
102
RTVSPost2010Prop43
 90
        3
102
RTVSPost2010PropOp43
 70
     1
102
RTVSPost2010Prop44ColorIndex
 90
        5
102
RTVSPost2010Prop44ColorRGB
 90
      255
102
RTVSPost2010PropOp44
 70
     1
102
RTVSPost2010Prop45
280
     0
102
RTVSPost2010PropOp45
 70
     1
102
RTVSPost2010Prop46
 90
       50
102
RTVSPost2010PropOp46
 70
     1
102
RTVSPost2010Prop47
 90
       50
102
RTVSPost2010PropOp47
 70
     1
102
RTVSPost2010Prop48
 90
       50
102
RTVSPost2010PropOp48
 70
     1
102
RTVSPost2010Prop49
280
     0
102
RTVSPost2010PropOp49
 70
     1
102
RTVSPost2010Prop50
 90
       50
102
RTVSPost2010PropOp50
 70
     1
102
RTVSPost2010Prop51ColorIndex
 90
      256
102
RTVSPost2010Prop51ColorRGB
 90
-16777216
102
RTVSPost2010PropOp51
 70
     0
102
RTVSPost2010Prop52
140
1.0
102
RTVSPost2010PropOp52
 70
     0
102
RTVSPost2010Prop53
 90
        2
102
RTVSPost2010PropOp53
 70
     1
102
RTVSPost2010Prop54
  1
strokes_ogs.tif
102
RTVSPost2010PropOp54
 70
     1
102
RTVSPost2010Prop55
280
     0
102
RTVSPost2010PropOp55
 70
     1
102
RTVSPost2010Prop56
140
1.0
102
RTVSPost2010PropOp56
 70
     1
102
RTVSPost2010Prop57
140
1.0
102
RTVSPost2010PropOp57
 70
     1
102
RTVSPropertyOp0
 70
     1
102
RTVSPropertyOp1
 70
     1
102
RTVSPropertyOp2
 70
     1
102
RTVSPropertyOp3
 70
     1
102
RTVSPropertyOp4
 70
     1
102
RTVSPropertyOp5
 70
     1
102
RTVSPropertyOp6
 70
     1
102
RTVSPropertyOp7
 70
     1
102
RTVSPropertyOp8
 70
     1
102
RTVSPropertyOp9
 70
     1
102
RTVSPropertyOp10
 70
     1
102
RTVSPropertyOp11
 70
     1
102
RTVSPropertyOp12
 70
     1
102
RTVSPropertyOp13
 70
     1
102
RTVSPropertyOp14
 70
     1
102
RTVSPropertyOp15
 70
     1
102
RTVSPropertyOp16
 70
     1
102
RTVSPropertyOp17
 70
     1
102
RTVSPropertyOp18
 70
     1
102
RTVSPropertyOp19
 70
     1
102
RTVSPropertyOp20
 70
     1
102
RTVSPropertyOp21
 70
     1
102
RTVSPropertyOp22
 70
     1
102
RTVSPropertyOp23
 70
     1
102
RTVSPropertyOp24
 70
     1
102
RTVSPropertyOp25
 70
     1
102
RTVSPropertyOp26
 70
     1
102
RTVSPropertyOp27
 70
     1
102
RTVSPropertyOp28
 70
     1
102
RTVSPropertyOp29
 70
     1
102
RTVSPropertyOp30
 70
     1
102
RTVSPropertyOp31
 70
     1
102
RTVSPropertyOp32
 70
     1
102
RTVSPropertyOp33
 70
     1
102
RTVSPropertyOp34
 70
     1
102
RTVSPropertyOp35
 70
     1
102
RTVSPropertyOp36
 70
     1
102
RTVSPropertyOp37
 70
     1
102
RTVSPropertyOp38
 70
     1
102
RTVSPropertyOp39
 70
     1
102
RTVSPropertyOp40
 70
     1
102
RTVSPropertyOp41
 70
     1
102
RTVSPropertyOp42
 70
     1
102
RTVSPropertyOp43
 70
     1
102
RTVSPropertyOp44
 70
     1
102
RTVSPropertyOp45
 70
     1
102
RTVSPropertyOp46
 70
     1
102
RTVSPropertyOp47
 70
     1
102
RTVSPropertyOp48
 70
     1
102
RTVSPropertyOp49
 70
     1
102
RTVSPropertyOp50
 70
     1
102
RTVSPropertyOp51
 70
     0
102
RTVSPropertyOp52
 70
     0
102
RTVSPropertyOp53
 70
     1
102
RTVSPropertyOp54
 70
     1
102
RTVSPropertyOp55
 70
     1
102
RTVSPropertyOp56
 70
     1
102
RTVSPropertyOp57
 70
     1
102
RTVSPropertyOp58
 70
     1
102
RTVSPropertyOp59
 70
     1
102
RTVSPropertyOp60
 70
     1
102
RTVSPropertyOp61
 70
     1
102
RTVSPropertyOp62
 70
     1
  0
XRECORD
  5
100A7
102
{ACAD_REACTORS
330
100A6
102
}
330
100A6
100
AcDbXrecord
280
     1
102
RTVSPost2010Prop28
280
     0
102
RTVSPost2010PropOp28
 70
     1
102
RTVSPost2010Prop29
280
     1
102
RTVSPost2010PropOp29
 70
     1
102
RTVSPost2010Prop30
280
     1
102
RTVSPost2010PropOp30
 70
     1
102
RTVSPost2010Prop31
280
     0
102
RTVSPost2010PropOp31
 70
     1
102
RTVSPost2010Prop32
280
     0
102
RTVSPost2010PropOp32
 70
     1
102
RTVSPost2010Prop33
280
     0
102
RTVSPost2010PropOp33
 70
     1
102
RTVSPost2010Prop34
280
     0
102
RTVSPost2010PropOp34
 70
     1
102
RTVSPost2010Prop35
280
     0
102
RTVSPost2010PropOp35
 70
     1
102
RTVSPost2010Prop36
280
     0
102
RTVSPost2010PropOp36
 70
     1
102
RTVSPost2010Prop37
 90
       50
102
RTVSPost2010PropOp37
 70
     1
102
RTVSPost2010Prop38
140
0.0
102
RTVSPost2010PropOp38
 70
     1
102
RTVSPost2010Prop39
140
1.0
102
RTVSPost2010PropOp39
 70
     1
102
RTVSPost2010Prop40
 90
        0
102
RTVSPost2010PropOp40
 70
     1
102
RTVSPost2010Prop41ColorIndex
 90
       18
102
RTVSPost2010Prop41ColorRGB
 90
        0
102
RTVSPost2010PropOp41
 70
     1
102
RTVSPost2010Prop42
 90
       50
102
RTVSPost2010PropOp42
 70
     1
102
RTVSPost2010Prop43
 90
        3
102
RTVSPost2010PropOp43
 70
     1
102
RTVSPost2010Prop44ColorIndex
 90
        5
102
RTVSPost2010Prop44ColorRGB
 90
      255
102
RTVSPost2010PropOp44
 70
     1
102
RTVSPost2010Prop45
280
     0
102
RTVSPost2010PropOp45
 70
     1
102
RTVSPost2010Prop46
 90
       50
102
RTVSPost2010PropOp46
 70
     1
102
RTVSPost2010Prop47
 90
       50
102
RTVSPost2010PropOp47
 70
     1
102
RTVSPost2010Prop48
 90
       50
102
RTVSPost2010PropOp48
 70
     1
102
RTVSPost2010Prop49
280
     0
102
RTVSPost2010PropOp49
 70
     1
102
RTVSPost2010Prop50
 90
       50
102
RTVSPost2010PropOp50
 70
     1
102
RTVSPost2010Prop51ColorIndex
 90
      256
102
RTVSPost2010Prop51ColorRGB
 90
-16777216
102
RTVSPost2010PropOp51
 70
     0
102
RTVSPost2010Prop52
140
1.0
102
RTVSPost2010PropOp52
 70
     0
102
RTVSPost2010Prop53
 90
        2
102
RTVSPost2010PropOp53
 70
     1
102
RTVSPost2010Prop54
  1
strokes_ogs.tif
102
RTVSPost2010PropOp54
 70
     1
102
RTVSPost2010Prop55
280
     0
102
RTVSPost2010PropOp55
 70
     1
102
RTVSPost2010Prop56
140
1.0
102
RTVSPost2010PropOp56
 70
     1
102
RTVSPost2010Prop57
140
1.0
102
RTVSPost2010PropOp57
 70
     1
102
RTVSPropertyOp0
 70
     1
102
RTVSPropertyOp1
 70
     1
102
RTVSPropertyOp2
 70
     1
102
RTVSPropertyOp3
 70
     1
102
RTVSPropertyOp4
 70
     1
102
RTVSPropertyOp5
 70
     1
102
RTVSPropertyOp6
 70
     1
102
RTVSPropertyOp7
 70
     1
102
RTVSPropertyOp8
 70
     1
102
RTVSPropertyOp9
 70
     1
102
RTVSPropertyOp10
 70
     1
102
RTVSPropertyOp11
 70
     1
102
RTVSPropertyOp12
 70
     1
102
RTVSPropertyOp13
 70
     1
102
RTVSPropertyOp14
 70
     1
102
RTVSPropertyOp15
 70
     1
102
RTVSPropertyOp16
 70
     1
102
RTVSPropertyOp17
 70
     1
102
RTVSPropertyOp18
 70
     1
102
RTVSPropertyOp19
 70
     1
102
RTVSPropertyOp20
 70
     1
102
RTVSPropertyOp21
 70
     1
102
RTVSPropertyOp22
 70
     1
102
RTVSPropertyOp23
 70
     1
102
RTVSPropertyOp24
 70
     1
102
RTVSPropertyOp25
 70
     1
102
RTVSPropertyOp26
 70
     1
102
RTVSPropertyOp27
 70
     1
102
RTVSPropertyOp28
 70
     1
102
RTVSPropertyOp29
 70
     1
102
RTVSPropertyOp30
 70
     1
102
RTVSPropertyOp31
 70
     1
102
RTVSPropertyOp32
 70
     1
102
RTVSPropertyOp33
 70
     1
102
RTVSPropertyOp34
 70
     1
102
RTVSPropertyOp35
 70
     1
102
RTVSPropertyOp36
 70
     1
102
RTVSPropertyOp37
 70
     1
102
RTVSPropertyOp38
 70
     1
102
RTVSPropertyOp39
 70
     1
102
RTVSPropertyOp40
 70
     1
102
RTVSPropertyOp41
 70
     1
102
RTVSPropertyOp42
 70
     1
102
RTVSPropertyOp43
 70
     1
102
RTVSPropertyOp44
 70
     1
102
RTVSPropertyOp45
 70
     1
102
RTVSPropertyOp46
 70
     1
102
RTVSPropertyOp47
 70
     1
102
RTVSPropertyOp48
 70
     1
102
RTVSPropertyOp49
 70
     1
102
RTVSPropertyOp50
 70
     1
102
RTVSPropertyOp51
 70
     0
102
RTVSPropertyOp52
 70
     0
102
RTVSPropertyOp53
 70
     1
102
RTVSPropertyOp54
 70
     1
102
RTVSPropertyOp55
 70
     1
102
RTVSPropertyOp56
 70
     1
102
RTVSPropertyOp57
 70
     1
102
RTVSPropertyOp58
 70
     1
102
RTVSPropertyOp59
 70
     1
102
RTVSPropertyOp60
 70
     1
102
RTVSPropertyOp61
 70
     1
102
RTVSPropertyOp62
 70
     1
  0
XRECORD
  5
100A9
102
{ACAD_REACTORS
330
100A8
102
}
330
100A8
100
AcDbXrecord
280
     1
102
RTVSPost2010Prop28
280
     0
102
RTVSPost2010PropOp28
 70
     1
102
RTVSPost2010Prop29
280
     1
102
RTVSPost2010PropOp29
 70
     1
102
RTVSPost2010Prop30
280
     1
102
RTVSPost2010PropOp30
 70
     1
102
RTVSPost2010Prop31
280
     0
102
RTVSPost2010PropOp31
 70
     1
102
RTVSPost2010Prop32
280
     0
102
RTVSPost2010PropOp32
 70
     1
102
RTVSPost2010Prop33
280
     0
102
RTVSPost2010PropOp33
 70
     1
102
RTVSPost2010Prop34
280
     0
102
RTVSPost2010PropOp34
 70
     1
102
RTVSPost2010Prop35
280
     0
102
RTVSPost2010PropOp35
 70
     1
102
RTVSPost2010Prop36
280
     0
102
RTVSPost2010PropOp36
 70
     1
102
RTVSPost2010Prop37
 90
       50
102
RTVSPost2010PropOp37
 70
     1
102
RTVSPost2010Prop38
140
0.0
102
RTVSPost2010PropOp38
 70
     1
102
RTVSPost2010Prop39
140
1.0
102
RTVSPost2010PropOp39
 70
     1
102
RTVSPost2010Prop40
 90
        0
102
RTVSPost2010PropOp40
 70
     1
102
RTVSPost2010Prop41ColorIndex
 90
       18
102
RTVSPost2010Prop41ColorRGB
 90
        0
102
RTVSPost2010PropOp41
 70
     1
102
RTVSPost2010Prop42
 90
       50
102
RTVSPost2010PropOp42
 70
     1
102
RTVSPost2010Prop43
 90
        3
102
RTVSPost2010PropOp43
 70
     1
102
RTVSPost2010Prop44ColorIndex
 90
        5
102
RTVSPost2010Prop44ColorRGB
 90
      255
102
RTVSPost2010PropOp44
 70
     1
102
RTVSPost2010Prop45
280
     0
102
RTVSPost2010PropOp45
 70
     1
102
RTVSPost2010Prop46
 90
       50
102
RTVSPost2010PropOp46
 70
     1
102
RTVSPost2010Prop47
 90
       50
102
RTVSPost2010PropOp47
 70
     1
102
RTVSPost2010Prop48
 90
       50
102
RTVSPost2010PropOp48
 70
     1
102
RTVSPost2010Prop49
280
     0
102
RTVSPost2010PropOp49
 70
     1
102
RTVSPost2010Prop50
 90
       50
102
RTVSPost2010PropOp50
 70
     1
102
RTVSPost2010Prop51ColorIndex
 90
      256
102
RTVSPost2010Prop51ColorRGB
 90
-16777216
102
RTVSPost2010PropOp51
 70
     0
102
RTVSPost2010Prop52
140
1.0
102
RTVSPost2010PropOp52
 70
     0
102
RTVSPost2010Prop53
 90
        2
102
RTVSPost2010PropOp53
 70
     1
102
RTVSPost2010Prop54
  1
strokes_ogs.tif
102
RTVSPost2010PropOp54
 70
     1
102
RTVSPost2010Prop55
280
     0
102
RTVSPost2010PropOp55
 70
     1
102
RTVSPost2010Prop56
140
1.0
102
RTVSPost2010PropOp56
 70
     1
102
RTVSPost2010Prop57
140
1.0
102
RTVSPost2010PropOp57
 70
     1
102
RTVSPropertyOp0
 70
     1
102
RTVSPropertyOp1
 70
     1
102
RTVSPropertyOp2
 70
     1
102
RTVSPropertyOp3
 70
     1
102
RTVSPropertyOp4
 70
     1
102
RTVSPropertyOp5
 70
     1
102
RTVSPropertyOp6
 70
     1
102
RTVSPropertyOp7
 70
     1
102
RTVSPropertyOp8
 70
     1
102
RTVSPropertyOp9
 70
     1
102
RTVSPropertyOp10
 70
     1
102
RTVSPropertyOp11
 70
     1
102
RTVSPropertyOp12
 70
     1
102
RTVSPropertyOp13
 70
     1
102
RTVSPropertyOp14
 70
     1
102
RTVSPropertyOp15
 70
     1
102
RTVSPropertyOp16
 70
     1
102
RTVSPropertyOp17
 70
     1
102
RTVSPropertyOp18
 70
     1
102
RTVSPropertyOp19
 70
     1
102
RTVSPropertyOp20
 70
     1
102
RTVSPropertyOp21
 70
     1
102
RTVSPropertyOp22
 70
     1
102
RTVSPropertyOp23
 70
     1
102
RTVSPropertyOp24
 70
     1
102
RTVSPropertyOp25
 70
     1
102
RTVSPropertyOp26
 70
     1
102
RTVSPropertyOp27
 70
     1
102
RTVSPropertyOp28
 70
     1
102
RTVSPropertyOp29
 70
     1
102
RTVSPropertyOp30
 70
     1
102
RTVSPropertyOp31
 70
     1
102
RTVSPropertyOp32
 70
     1
102
RTVSPropertyOp33
 70
     1
102
RTVSPropertyOp34
 70
     1
102
RTVSPropertyOp35
 70
     1
102
RTVSPropertyOp36
 70
     1
102
RTVSPropertyOp37
 70
     1
102
RTVSPropertyOp38
 70
     1
102
RTVSPropertyOp39
 70
     1
102
RTVSPropertyOp40
 70
     1
102
RTVSPropertyOp41
 70
     1
102
RTVSPropertyOp42
 70
     1
102
RTVSPropertyOp43
 70
     1
102
RTVSPropertyOp44
 70
     1
102
RTVSPropertyOp45
 70
     1
102
RTVSPropertyOp46
 70
     1
102
RTVSPropertyOp47
 70
     1
102
RTVSPropertyOp48
 70
     1
102
RTVSPropertyOp49
 70
     1
102
RTVSPropertyOp50
 70
     1
102
RTVSPropertyOp51
 70
     0
102
RTVSPropertyOp52
 70
     0
102
RTVSPropertyOp53
 70
     1
102
RTVSPropertyOp54
 70
     1
102
RTVSPropertyOp55
 70
     1
102
RTVSPropertyOp56
 70
     1
102
RTVSPropertyOp57
 70
     1
102
RTVSPropertyOp58
 70
     1
102
RTVSPropertyOp59
 70
     1
102
RTVSPropertyOp60
 70
     1
102
RTVSPropertyOp61
 70
     1
102
RTVSPropertyOp62
 70
     1
  0
XRECORD
  5
100AB
102
{ACAD_REACTORS
330
100AA
102
}
330
100AA
100
AcDbXrecord
280
     1
102
RTVSPost2010Prop28
280
     0
102
RTVSPost2010PropOp28
 70
     1
102
RTVSPost2010Prop29
280
     1
102
RTVSPost2010PropOp29
 70
     1
102
RTVSPost2010Prop30
280
     1
102
RTVSPost2010PropOp30
 70
     1
102
RTVSPost2010Prop31
280
     0
102
RTVSPost2010PropOp31
 70
     1
102
RTVSPost2010Prop32
280
     0
102
RTVSPost2010PropOp32
 70
     1
102
RTVSPost2010Prop33
280
     0
102
RTVSPost2010PropOp33
 70
     1
102
RTVSPost2010Prop34
280
     0
102
RTVSPost2010PropOp34
 70
     1
102
RTVSPost2010Prop35
280
     0
102
RTVSPost2010PropOp35
 70
     1
102
RTVSPost2010Prop36
280
     0
102
RTVSPost2010PropOp36
 70
     1
102
RTVSPost2010Prop37
 90
       50
102
RTVSPost2010PropOp37
 70
     1
102
RTVSPost2010Prop38
140
0.0
102
RTVSPost2010PropOp38
 70
     1
102
RTVSPost2010Prop39
140
1.0
102
RTVSPost2010PropOp39
 70
     1
102
RTVSPost2010Prop40
 90
        0
102
RTVSPost2010PropOp40
 70
     1
102
RTVSPost2010Prop41ColorIndex
 90
       18
102
RTVSPost2010Prop41ColorRGB
 90
        0
102
RTVSPost2010PropOp41
 70
     1
102
RTVSPost2010Prop42
 90
       50
102
RTVSPost2010PropOp42
 70
     1
102
RTVSPost2010Prop43
 90
        3
102
RTVSPost2010PropOp43
 70
     1
102
RTVSPost2010Prop44ColorIndex
 90
        5
102
RTVSPost2010Prop44ColorRGB
 90
      255
102
RTVSPost2010PropOp44
 70
     1
102
RTVSPost2010Prop45
280
     0
102
RTVSPost2010PropOp45
 70
     1
102
RTVSPost2010Prop46
 90
       50
102
RTVSPost2010PropOp46
 70
     1
102
RTVSPost2010Prop47
 90
       50
102
RTVSPost2010PropOp47
 70
     1
102
RTVSPost2010Prop48
 90
       50
102
RTVSPost2010PropOp48
 70
     1
102
RTVSPost2010Prop49
280
     0
102
RTVSPost2010PropOp49
 70
     1
102
RTVSPost2010Prop50
 90
       50
102
RTVSPost2010PropOp50
 70
     1
102
RTVSPost2010Prop51ColorIndex
 90
      256
102
RTVSPost2010Prop51ColorRGB
 90
-16777216
102
RTVSPost2010PropOp51
 70
     0
102
RTVSPost2010Prop52
140
1.0
102
RTVSPost2010PropOp52
 70
     0
102
RTVSPost2010Prop53
 90
        2
102
RTVSPost2010PropOp53
 70
     1
102
RTVSPost2010Prop54
  1
strokes_ogs.tif
102
RTVSPost2010PropOp54
 70
     1
102
RTVSPost2010Prop55
280
     0
102
RTVSPost2010PropOp55
 70
     1
102
RTVSPost2010Prop56
140
1.0
102
RTVSPost2010PropOp56
 70
     1
102
RTVSPost2010Prop57
140
1.0
102
RTVSPost2010PropOp57
 70
     1
102
RTVSPropertyOp0
 70
     1
102
RTVSPropertyOp1
 70
     1
102
RTVSPropertyOp2
 70
     1
102
RTVSPropertyOp3
 70
     1
102
RTVSPropertyOp4
 70
     1
102
RTVSPropertyOp5
 70
     1
102
RTVSPropertyOp6
 70
     1
102
RTVSPropertyOp7
 70
     1
102
RTVSPropertyOp8
 70
     1
102
RTVSPropertyOp9
 70
     1
102
RTVSPropertyOp10
 70
     1
102
RTVSPropertyOp11
 70
     1
102
RTVSPropertyOp12
 70
     1
102
RTVSPropertyOp13
 70
     1
102
RTVSPropertyOp14
 70
     1
102
RTVSPropertyOp15
 70
     1
102
RTVSPropertyOp16
 70
     1
102
RTVSPropertyOp17
 70
     1
102
RTVSPropertyOp18
 70
     1
102
RTVSPropertyOp19
 70
     1
102
RTVSPropertyOp20
 70
     1
102
RTVSPropertyOp21
 70
     1
102
RTVSPropertyOp22
 70
     1
102
RTVSPropertyOp23
 70
     1
102
RTVSPropertyOp24
 70
     1
102
RTVSPropertyOp25
 70
     1
102
RTVSPropertyOp26
 70
     1
102
RTVSPropertyOp27
 70
     1
102
RTVSPropertyOp28
 70
     1
102
RTVSPropertyOp29
 70
     1
102
RTVSPropertyOp30
 70
     1
102
RTVSPropertyOp31
 70
     1
102
RTVSPropertyOp32
 70
     1
102
RTVSPropertyOp33
 70
     1
102
RTVSPropertyOp34
 70
     1
102
RTVSPropertyOp35
 70
     1
102
RTVSPropertyOp36
 70
     1
102
RTVSPropertyOp37
 70
     1
102
RTVSPropertyOp38
 70
     1
102
RTVSPropertyOp39
 70
     1
102
RTVSPropertyOp40
 70
     1
102
RTVSPropertyOp41
 70
     1
102
RTVSPropertyOp42
 70
     1
102
RTVSPropertyOp43
 70
     1
102
RTVSPropertyOp44
 70
     1
102
RTVSPropertyOp45
 70
     1
102
RTVSPropertyOp46
 70
     1
102
RTVSPropertyOp47
 70
     1
102
RTVSPropertyOp48
 70
     1
102
RTVSPropertyOp49
 70
     1
102
RTVSPropertyOp50
 70
     1
102
RTVSPropertyOp51
 70
     0
102
RTVSPropertyOp52
 70
     0
102
RTVSPropertyOp53
 70
     1
102
RTVSPropertyOp54
 70
     1
102
RTVSPropertyOp55
 70
     1
102
RTVSPropertyOp56
 70
     1
102
RTVSPropertyOp57
 70
     1
102
RTVSPropertyOp58
 70
     1
102
RTVSPropertyOp59
 70
     1
102
RTVSPropertyOp60
 70
     1
102
RTVSPropertyOp61
 70
     1
102
RTVSPropertyOp62
 70
     1
  0
XRECORD
  5
100B3
102
{ACAD_REACTORS
330
100B2
102
}
330
100B2
100
AcDbXrecord
280
     1
102
RTVSPost2010Prop28
280
     0
102
RTVSPost2010PropOp28
 70
     1
102
RTVSPost2010Prop29
280
     1
102
RTVSPost2010PropOp29
 70
     1
102
RTVSPost2010Prop30
280
     1
102
RTVSPost2010PropOp30
 70
     1
102
RTVSPost2010Prop31
280
     0
102
RTVSPost2010PropOp31
 70
     1
102
RTVSPost2010Prop32
280
     0
102
RTVSPost2010PropOp32
 70
     1
102
RTVSPost2010Prop33
280
     0
102
RTVSPost2010PropOp33
 70
     1
102
RTVSPost2010Prop34
280
     0
102
RTVSPost2010PropOp34
 70
     1
102
RTVSPost2010Prop35
280
     0
102
RTVSPost2010PropOp35
 70
     1
102
RTVSPost2010Prop36
280
     0
102
RTVSPost2010PropOp36
 70
     1
102
RTVSPost2010Prop37
 90
       50
102
RTVSPost2010PropOp37
 70
     1
102
RTVSPost2010Prop38
140
0.0
102
RTVSPost2010PropOp38
 70
     1
102
RTVSPost2010Prop39
140
1.0
102
RTVSPost2010PropOp39
 70
     1
102
RTVSPost2010Prop40
 90
        0
102
RTVSPost2010PropOp40
 70
     1
102
RTVSPost2010Prop41ColorIndex
 90
       18
102
RTVSPost2010Prop41ColorRGB
 90
        0
102
RTVSPost2010PropOp41
 70
     1
102
RTVSPost2010Prop42
 90
       50
102
RTVSPost2010PropOp42
 70
     1
102
RTVSPost2010Prop43
 90
        3
102
RTVSPost2010PropOp43
 70
     1
102
RTVSPost2010Prop44ColorIndex
 90
        5
102
RTVSPost2010Prop44ColorRGB
 90
      255
102
RTVSPost2010PropOp44
 70
     1
102
RTVSPost2010Prop45
280
     0
102
RTVSPost2010PropOp45
 70
     1
102
RTVSPost2010Prop46
 90
       50
102
RTVSPost2010PropOp46
 70
     1
102
RTVSPost2010Prop47
 90
       50
102
RTVSPost2010PropOp47
 70
     1
102
RTVSPost2010Prop48
 90
       50
102
RTVSPost2010PropOp48
 70
     1
102
RTVSPost2010Prop49
280
     0
102
RTVSPost2010PropOp49
 70
     1
102
RTVSPost2010Prop50
 90
       50
102
RTVSPost2010PropOp50
 70
     1
102
RTVSPost2010Prop51ColorIndex
 90
      256
102
RTVSPost2010Prop51ColorRGB
 90
-16777216
102
RTVSPost2010PropOp51
 70
     0
102
RTVSPost2010Prop52
140
1.0
102
RTVSPost2010PropOp52
 70
     0
102
RTVSPost2010Prop53
 90
        2
102
RTVSPost2010PropOp53
 70
     1
102
RTVSPost2010Prop54
  1
strokes_ogs.tif
102
RTVSPost2010PropOp54
 70
     1
102
RTVSPost2010Prop55
280
     0
102
RTVSPost2010PropOp55
 70
     1
102
RTVSPost2010Prop56
140
1.0
102
RTVSPost2010PropOp56
 70
     1
102
RTVSPost2010Prop57
140
1.0
102
RTVSPost2010PropOp57
 70
     1
102
RTVSPropertyOp0
 70
     1
102
RTVSPropertyOp1
 70
     1
102
RTVSPropertyOp2
 70
     1
102
RTVSPropertyOp3
 70
     1
102
RTVSPropertyOp4
 70
     1
102
RTVSPropertyOp5
 70
     1
102
RTVSPropertyOp6
 70
     1
102
RTVSPropertyOp7
 70
     1
102
RTVSPropertyOp8
 70
     1
102
RTVSPropertyOp9
 70
     1
102
RTVSPropertyOp10
 70
     1
102
RTVSPropertyOp11
 70
     1
102
RTVSPropertyOp12
 70
     1
102
RTVSPropertyOp13
 70
     1
102
RTVSPropertyOp14
 70
     1
102
RTVSPropertyOp15
 70
     1
102
RTVSPropertyOp16
 70
     1
102
RTVSPropertyOp17
 70
     1
102
RTVSPropertyOp18
 70
     1
102
RTVSPropertyOp19
 70
     1
102
RTVSPropertyOp20
 70
     1
102
RTVSPropertyOp21
 70
     1
102
RTVSPropertyOp22
 70
     1
102
RTVSPropertyOp23
 70
     1
102
RTVSPropertyOp24
 70
     1
102
RTVSPropertyOp25
 70
     1
102
RTVSPropertyOp26
 70
     1
102
RTVSPropertyOp27
 70
     1
102
RTVSPropertyOp28
 70
     1
102
RTVSPropertyOp29
 70
     1
102
RTVSPropertyOp30
 70
     1
102
RTVSPropertyOp31
 70
     1
102
RTVSPropertyOp32
 70
     1
102
RTVSPropertyOp33
 70
     1
102
RTVSPropertyOp34
 70
     1
102
RTVSPropertyOp35
 70
     1
102
RTVSPropertyOp36
 70
     1
102
RTVSPropertyOp37
 70
     1
102
RTVSPropertyOp38
 70
     1
102
RTVSPropertyOp39
 70
     1
102
RTVSPropertyOp40
 70
     1
102
RTVSPropertyOp41
 70
     1
102
RTVSPropertyOp42
 70
     1
102
RTVSPropertyOp43
 70
     1
102
RTVSPropertyOp44
 70
     1
102
RTVSPropertyOp45
 70
     1
102
RTVSPropertyOp46
 70
     1
102
RTVSPropertyOp47
 70
     1
102
RTVSPropertyOp48
 70
     1
102
RTVSPropertyOp49
 70
     1
102
RTVSPropertyOp50
 70
     1
102
RTVSPropertyOp51
 70
     0
102
RTVSPropertyOp52
 70
     0
102
RTVSPropertyOp53
 70
     1
102
RTVSPropertyOp54
 70
     1
102
RTVSPropertyOp55
 70
     1
102
RTVSPropertyOp56
 70
     1
102
RTVSPropertyOp57
 70
     1
102
RTVSPropertyOp58
 70
     1
102
RTVSPropertyOp59
 70
     1
102
RTVSPropertyOp60
 70
     1
102
RTVSPropertyOp61
 70
     1
102
RTVSPropertyOp62
 70
     1
  0
XRECORD
  5
100CF
102
{ACAD_REACTORS
330
100CE
102
}
330
100CE
100
AcDbXrecord
280
     1
102
RTVSPost2010Prop28
280
     0
102
RTVSPost2010PropOp28
 70
     1
102
RTVSPost2010Prop29
280
     1
102
RTVSPost2010PropOp29
 70
     1
102
RTVSPost2010Prop30
280
     1
102
RTVSPost2010PropOp30
 70
     1
102
RTVSPost2010Prop31
280
     0
102
RTVSPost2010PropOp31
 70
     1
102
RTVSPost2010Prop32
280
     0
102
RTVSPost2010PropOp32
 70
     1
102
RTVSPost2010Prop33
280
     0
102
RTVSPost2010PropOp33
 70
     1
102
RTVSPost2010Prop34
280
     0
102
RTVSPost2010PropOp34
 70
     1
102
RTVSPost2010Prop35
280
     0
102
RTVSPost2010PropOp35
 70
     1
102
RTVSPost2010Prop36
280
     0
102
RTVSPost2010PropOp36
 70
     1
102
RTVSPost2010Prop37
 90
       50
102
RTVSPost2010PropOp37
 70
     0
102
RTVSPost2010Prop38
140
0.0
102
RTVSPost2010PropOp38
 70
     0
102
RTVSPost2010Prop39
140
1.0
102
RTVSPost2010PropOp39
 70
     0
102
RTVSPost2010Prop40
 90
        0
102
RTVSPost2010PropOp40
 70
     0
102
RTVSPost2010Prop41ColorIndex
 90
       18
102
RTVSPost2010Prop41ColorRGB
 90
        0
102
RTVSPost2010PropOp41
 70
     0
102
RTVSPost2010Prop42
 90
       50
102
RTVSPost2010PropOp42
 70
     0
102
RTVSPost2010Prop43
 90
        3
102
RTVSPost2010PropOp43
 70
     0
102
RTVSPost2010Prop44ColorIndex
 90
        5
102
RTVSPost2010Prop44ColorRGB
 90
      255
102
RTVSPost2010PropOp44
 70
     0
102
RTVSPost2010Prop45
280
     0
102
RTVSPost2010PropOp45
 70
     1
102
RTVSPost2010Prop46
 90
       50
102
RTVSPost2010PropOp46
 70
     0
102
RTVSPost2010Prop47
 90
       50
102
RTVSPost2010PropOp47
 70
     0
102
RTVSPost2010Prop48
 90
       50
102
RTVSPost2010PropOp48
 70
     0
102
RTVSPost2010Prop49
280
     0
102
RTVSPost2010PropOp49
 70
     1
102
RTVSPost2010Prop50
 90
       50
102
RTVSPost2010PropOp50
 70
     0
102
RTVSPost2010Prop51ColorIndex
 90
      256
102
RTVSPost2010Prop51ColorRGB
 90
-16777216
102
RTVSPost2010PropOp51
 70
     0
102
RTVSPost2010Prop52
140
1.0
102
RTVSPost2010PropOp52
 70
     0
102
RTVSPost2010Prop53
 90
        2
102
RTVSPost2010PropOp53
 70
     0
102
RTVSPost2010Prop54
  1
strokes_ogs.tif
102
RTVSPost2010PropOp54
 70
     0
102
RTVSPost2010Prop55
280
     0
102
RTVSPost2010PropOp55
 70
     1
102
RTVSPost2010Prop56
140
1.0
102
RTVSPost2010PropOp56
 70
     0
102
RTVSPost2010Prop57
140
1.0
102
RTVSPost2010PropOp57
 70
     0
102
RTVSPropertyOp0
 70
     0
102
RTVSPropertyOp1
 70
     0
102
RTVSPropertyOp2
 70
     0
102
RTVSPropertyOp3
 70
     0
102
RTVSPropertyOp4
 70
     0
102
RTVSPropertyOp5
 70
     0
102
RTVSPropertyOp6
 70
     0
102
RTVSPropertyOp7
 70
     0
102
RTVSPropertyOp8
 70
     0
102
RTVSPropertyOp9
 70
     0
102
RTVSPropertyOp10
 70
     0
102
RTVSPropertyOp11
 70
     0
102
RTVSPropertyOp12
 70
     0
102
RTVSPropertyOp13
 70
     0
102
RTVSPropertyOp14
 70
     2
102
RTVSPropertyOp15
 70
     0
102
RTVSPropertyOp16
 70
     0
102
RTVSPropertyOp17
 70
     0
102
RTVSPropertyOp18
 70
     0
102
RTVSPropertyOp19
 70
     0
102
RTVSPropertyOp20
 70
     0
102
RTVSPropertyOp21
 70
     0
102
RTVSPropertyOp22
 70
     0
102
RTVSPropertyOp23
 70
     0
102
RTVSPropertyOp24
 70
     0
102
RTVSPropertyOp25
 70
     0
102
RTVSPropertyOp26
 70
     0
102
RTVSPropertyOp27
 70
     0
102
RTVSPropertyOp28
 70
     1
102
RTVSPropertyOp29
 70
     1
102
RTVSPropertyOp30
 70
     1
102
RTVSPropertyOp31
 70
     1
102
RTVSPropertyOp32
 70
     1
102
RTVSPropertyOp33
 70
     1
102
RTVSPropertyOp34
 70
     1
102
RTVSPropertyOp35
 70
     1
102
RTVSPropertyOp36
 70
     1
102
RTVSPropertyOp37
 70
     0
102
RTVSPropertyOp38
 70
     0
102
RTVSPropertyOp39
 70
     0
102
RTVSPropertyOp40
 70
     0
102
RTVSPropertyOp41
 70
     0
102
RTVSPropertyOp42
 70
     0
102
RTVSPropertyOp43
 70
     0
102
RTVSPropertyOp44
 70
     0
102
RTVSPropertyOp45
 70
     1
102
RTVSPropertyOp46
 70
     0
102
RTVSPropertyOp47
 70
     0
102
RTVSPropertyOp48
 70
     0
102
RTVSPropertyOp49
 70
     1
102
RTVSPropertyOp50
 70
     0
102
RTVSPropertyOp51
 70
     0
102
RTVSPropertyOp52
 70
     0
102
RTVSPropertyOp53
 70
     0
102
RTVSPropertyOp54
 70
     0
102
RTVSPropertyOp55
 70
     1
102
RTVSPropertyOp56
 70
     0
102
RTVSPropertyOp57
 70
     0
102
RTVSPropertyOp58
 70
     0
102
RTVSPropertyOp59
 70
     0
102
RTVSPropertyOp60
 70
     0
102
RTVSPropertyOp61
 70
     0
102
RTVSPropertyOp62
 70
     0
  0
XRECORD
  5
100BF
102
{ACAD_REACTORS
330
100BE
102
}
330
100BE
100
AcDbXrecord
280
     1
102
RTVSPost2010Prop28
280
     0
102
RTVSPost2010PropOp28
 70
     1
102
RTVSPost2010Prop29
280
     1
102
RTVSPost2010PropOp29
 70
     1
102
RTVSPost2010Prop30
280
     1
102
RTVSPost2010PropOp30
 70
     1
102
RTVSPost2010Prop31
280
     0
102
RTVSPost2010PropOp31
 70
     1
102
RTVSPost2010Prop32
280
     0
102
RTVSPost2010PropOp32
 70
     1
102
RTVSPost2010Prop33
280
     0
102
RTVSPost2010PropOp33
 70
     1
102
RTVSPost2010Prop34
280
     0
102
RTVSPost2010PropOp34
 70
     1
102
RTVSPost2010Prop35
280
     0
102
RTVSPost2010PropOp35
 70
     1
102
RTVSPost2010Prop36
280
     0
102
RTVSPost2010PropOp36
 70
     1
102
RTVSPost2010Prop37
 90
       50
102
RTVSPost2010PropOp37
 70
     1
102
RTVSPost2010Prop38
140
0.0
102
RTVSPost2010PropOp38
 70
     1
102
RTVSPost2010Prop39
140
1.0
102
RTVSPost2010PropOp39
 70
     1
102
RTVSPost2010Prop40
 90
        0
102
RTVSPost2010PropOp40
 70
     1
102
RTVSPost2010Prop41ColorIndex
 90
       18
102
RTVSPost2010Prop41ColorRGB
 90
        0
102
RTVSPost2010PropOp41
 70
     1
102
RTVSPost2010Prop42
 90
       50
102
RTVSPost2010PropOp42
 70
     1
102
RTVSPost2010Prop43
 90
        3
102
RTVSPost2010PropOp43
 70
     1
102
RTVSPost2010Prop44ColorIndex
 90
        5
102
RTVSPost2010Prop44ColorRGB
 90
      255
102
RTVSPost2010PropOp44
 70
     1
102
RTVSPost2010Prop45
280
     0
102
RTVSPost2010PropOp45
 70
     1
102
RTVSPost2010Prop46
 90
       50
102
RTVSPost2010PropOp46
 70
     1
102
RTVSPost2010Prop47
 90
       50
102
RTVSPost2010PropOp47
 70
     1
102
RTVSPost2010Prop48
 90
       50
102
RTVSPost2010PropOp48
 70
     1
102
RTVSPost2010Prop49
280
     0
102
RTVSPost2010PropOp49
 70
     1
102
RTVSPost2010Prop50
 90
       50
102
RTVSPost2010PropOp50
 70
     1
102
RTVSPost2010Prop51ColorIndex
 90
      256
102
RTVSPost2010Prop51ColorRGB
 90
-16777216
102
RTVSPost2010PropOp51
 70
     0
102
RTVSPost2010Prop52
140
1.0
102
RTVSPost2010PropOp52
 70
     0
102
RTVSPost2010Prop53
 90
        2
102
RTVSPost2010PropOp53
 70
     1
102
RTVSPost2010Prop54
  1
strokes_ogs.tif
102
RTVSPost2010PropOp54
 70
     1
102
RTVSPost2010Prop55
280
     0
102
RTVSPost2010PropOp55
 70
     1
102
RTVSPost2010Prop56
140
1.0
102
RTVSPost2010PropOp56
 70
     1
102
RTVSPost2010Prop57
140
1.0
102
RTVSPost2010PropOp57
 70
     1
102
RTVSPropertyOp0
 70
     1
102
RTVSPropertyOp1
 70
     1
102
RTVSPropertyOp2
 70
     1
102
RTVSPropertyOp3
 70
     1
102
RTVSPropertyOp4
 70
     1
102
RTVSPropertyOp5
 70
     1
102
RTVSPropertyOp6
 70
     1
102
RTVSPropertyOp7
 70
     1
102
RTVSPropertyOp8
 70
     1
102
RTVSPropertyOp9
 70
     1
102
RTVSPropertyOp10
 70
     1
102
RTVSPropertyOp11
 70
     1
102
RTVSPropertyOp12
 70
     1
102
RTVSPropertyOp13
 70
     1
102
RTVSPropertyOp14
 70
     1
102
RTVSPropertyOp15
 70
     1
102
RTVSPropertyOp16
 70
     1
102
RTVSPropertyOp17
 70
     1
102
RTVSPropertyOp18
 70
     1
102
RTVSPropertyOp19
 70
     1
102
RTVSPropertyOp20
 70
     1
102
RTVSPropertyOp21
 70
     1
102
RTVSPropertyOp22
 70
     1
102
RTVSPropertyOp23
 70
     1
102
RTVSPropertyOp24
 70
     1
102
RTVSPropertyOp25
 70
     1
102
RTVSPropertyOp26
 70
     1
102
RTVSPropertyOp27
 70
     1
102
RTVSPropertyOp28
 70
     1
102
RTVSPropertyOp29
 70
     1
102
RTVSPropertyOp30
 70
     1
102
RTVSPropertyOp31
 70
     1
102
RTVSPropertyOp32
 70
     1
102
RTVSPropertyOp33
 70
     1
102
RTVSPropertyOp34
 70
     1
102
RTVSPropertyOp35
 70
     1
102
RTVSPropertyOp36
 70
     1
102
RTVSPropertyOp37
 70
     1
102
RTVSPropertyOp38
 70
     1
102
RTVSPropertyOp39
 70
     1
102
RTVSPropertyOp40
 70
     1
102
RTVSPropertyOp41
 70
     1
102
RTVSPropertyOp42
 70
     1
102
RTVSPropertyOp43
 70
     1
102
RTVSPropertyOp44
 70
     1
102
RTVSPropertyOp45
 70
     1
102
RTVSPropertyOp46
 70
     1
102
RTVSPropertyOp47
 70
     1
102
RTVSPropertyOp48
 70
     1
102
RTVSPropertyOp49
 70
     1
102
RTVSPropertyOp50
 70
     1
102
RTVSPropertyOp51
 70
     0
102
RTVSPropertyOp52
 70
     0
102
RTVSPropertyOp53
 70
     1
102
RTVSPropertyOp54
 70
     1
102
RTVSPropertyOp55
 70
     1
102
RTVSPropertyOp56
 70
     1
102
RTVSPropertyOp57
 70
     1
102
RTVSPropertyOp58
 70
     1
102
RTVSPropertyOp59
 70
     1
102
RTVSPropertyOp60
 70
     1
102
RTVSPropertyOp61
 70
     1
102
RTVSPropertyOp62
 70
     1
  0
XRECORD
  5
100D1
102
{ACAD_REACTORS
330
100D0
102
}
330
100D0
100
AcDbXrecord
280
     1
102
RTVSPost2010Prop28
280
     0
102
RTVSPost2010PropOp28
 70
     1
102
RTVSPost2010Prop29
280
     1
102
RTVSPost2010PropOp29
 70
     1
102
RTVSPost2010Prop30
280
     1
102
RTVSPost2010PropOp30
 70
     1
102
RTVSPost2010Prop31
280
     0
102
RTVSPost2010PropOp31
 70
     1
102
RTVSPost2010Prop32
280
     0
102
RTVSPost2010PropOp32
 70
     1
102
RTVSPost2010Prop33
280
     0
102
RTVSPost2010PropOp33
 70
     1
102
RTVSPost2010Prop34
280
     0
102
RTVSPost2010PropOp34
 70
     1
102
RTVSPost2010Prop35
280
     0
102
RTVSPost2010PropOp35
 70
     1
102
RTVSPost2010Prop36
280
     0
102
RTVSPost2010PropOp36
 70
     1
102
RTVSPost2010Prop37
 90
       50
102
RTVSPost2010PropOp37
 70
     0
102
RTVSPost2010Prop38
140
0.0
102
RTVSPost2010PropOp38
 70
     0
102
RTVSPost2010Prop39
140
1.0
102
RTVSPost2010PropOp39
 70
     0
102
RTVSPost2010Prop40
 90
        0
102
RTVSPost2010PropOp40
 70
     0
102
RTVSPost2010Prop41ColorIndex
 90
       18
102
RTVSPost2010Prop41ColorRGB
 90
        0
102
RTVSPost2010PropOp41
 70
     0
102
RTVSPost2010Prop42
 90
       50
102
RTVSPost2010PropOp42
 70
     0
102
RTVSPost2010Prop43
 90
        3
102
RTVSPost2010PropOp43
 70
     0
102
RTVSPost2010Prop44ColorIndex
 90
        5
102
RTVSPost2010Prop44ColorRGB
 90
      255
102
RTVSPost2010PropOp44
 70
     0
102
RTVSPost2010Prop45
280
     0
102
RTVSPost2010PropOp45
 70
     1
102
RTVSPost2010Prop46
 90
       50
102
RTVSPost2010PropOp46
 70
     0
102
RTVSPost2010Prop47
 90
       50
102
RTVSPost2010PropOp47
 70
     0
102
RTVSPost2010Prop48
 90
       50
102
RTVSPost2010PropOp48
 70
     0
102
RTVSPost2010Prop49
280
     0
102
RTVSPost2010PropOp49
 70
     1
102
RTVSPost2010Prop50
 90
       50
102
RTVSPost2010PropOp50
 70
     0
102
RTVSPost2010Prop51ColorIndex
 90
      256
102
RTVSPost2010Prop51ColorRGB
 90
-16777216
102
RTVSPost2010PropOp51
 70
     0
102
RTVSPost2010Prop52
140
1.0
102
RTVSPost2010PropOp52
 70
     0
102
RTVSPost2010Prop53
 90
        2
102
RTVSPost2010PropOp53
 70
     0
102
RTVSPost2010Prop54
  1
strokes_ogs.tif
102
RTVSPost2010PropOp54
 70
     0
102
RTVSPost2010Prop55
280
     0
102
RTVSPost2010PropOp55
 70
     1
102
RTVSPost2010Prop56
140
1.0
102
RTVSPost2010PropOp56
 70
     0
102
RTVSPost2010Prop57
140
1.0
102
RTVSPost2010PropOp57
 70
     0
102
RTVSPropertyOp0
 70
     0
102
RTVSPropertyOp1
 70
     0
102
RTVSPropertyOp2
 70
     0
102
RTVSPropertyOp3
 70
     0
102
RTVSPropertyOp4
 70
     0
102
RTVSPropertyOp5
 70
     0
102
RTVSPropertyOp6
 70
     0
102
RTVSPropertyOp7
 70
     0
102
RTVSPropertyOp8
 70
     0
102
RTVSPropertyOp9
 70
     0
102
RTVSPropertyOp10
 70
     0
102
RTVSPropertyOp11
 70
     0
102
RTVSPropertyOp12
 70
     0
102
RTVSPropertyOp13
 70
     0
102
RTVSPropertyOp14
 70
     2
102
RTVSPropertyOp15
 70
     0
102
RTVSPropertyOp16
 70
     0
102
RTVSPropertyOp17
 70
     0
102
RTVSPropertyOp18
 70
     0
102
RTVSPropertyOp19
 70
     0
102
RTVSPropertyOp20
 70
     0
102
RTVSPropertyOp21
 70
     0
102
RTVSPropertyOp22
 70
     0
102
RTVSPropertyOp23
 70
     0
102
RTVSPropertyOp24
 70
     0
102
RTVSPropertyOp25
 70
     0
102
RTVSPropertyOp26
 70
     0
102
RTVSPropertyOp27
 70
     0
102
RTVSPropertyOp28
 70
     1
102
RTVSPropertyOp29
 70
     1
102
RTVSPropertyOp30
 70
     1
102
RTVSPropertyOp31
 70
     1
102
RTVSPropertyOp32
 70
     1
102
RTVSPropertyOp33
 70
     1
102
RTVSPropertyOp34
 70
     1
102
RTVSPropertyOp35
 70
     1
102
RTVSPropertyOp36
 70
     1
102
RTVSPropertyOp37
 70
     0
102
RTVSPropertyOp38
 70
     0
102
RTVSPropertyOp39
 70
     0
102
RTVSPropertyOp40
 70
     0
102
RTVSPropertyOp41
 70
     0
102
RTVSPropertyOp42
 70
     0
102
RTVSPropertyOp43
 70
     0
102
RTVSPropertyOp44
 70
     0
102
RTVSPropertyOp45
 70
     1
102
RTVSPropertyOp46
 70
     0
102
RTVSPropertyOp47
 70
     0
102
RTVSPropertyOp48
 70
     0
102
RTVSPropertyOp49
 70
     1
102
RTVSPropertyOp50
 70
     0
102
RTVSPropertyOp51
 70
     0
102
RTVSPropertyOp52
 70
     0
102
RTVSPropertyOp53
 70
     0
102
RTVSPropertyOp54
 70
     0
102
RTVSPropertyOp55
 70
     1
102
RTVSPropertyOp56
 70
     0
102
RTVSPropertyOp57
 70
     0
102
RTVSPropertyOp58
 70
     0
102
RTVSPropertyOp59
 70
     0
102
RTVSPropertyOp60
 70
     0
102
RTVSPropertyOp61
 70
     0
102
RTVSPropertyOp62
 70
     0
  0
XRECORD
  5
100B7
102
{ACAD_REACTORS
330
100B6
102
}
330
100B6
100
AcDbXrecord
280
     1
102
RTVSPost2010Prop28
280
     0
102
RTVSPost2010PropOp28
 70
     1
102
RTVSPost2010Prop29
280
     1
102
RTVSPost2010PropOp29
 70
     1
102
RTVSPost2010Prop30
280
     1
102
RTVSPost2010PropOp30
 70
     1
102
RTVSPost2010Prop31
280
     0
102
RTVSPost2010PropOp31
 70
     1
102
RTVSPost2010Prop32
280
     0
102
RTVSPost2010PropOp32
 70
     1
102
RTVSPost2010Prop33
280
     0
102
RTVSPost2010PropOp33
 70
     1
102
RTVSPost2010Prop34
280
     0
102
RTVSPost2010PropOp34
 70
     1
102
RTVSPost2010Prop35
280
     0
102
RTVSPost2010PropOp35
 70
     1
102
RTVSPost2010Prop36
280
     0
102
RTVSPost2010PropOp36
 70
     1
102
RTVSPost2010Prop37
 90
       50
102
RTVSPost2010PropOp37
 70
     1
102
RTVSPost2010Prop38
140
0.0
102
RTVSPost2010PropOp38
 70
     1
102
RTVSPost2010Prop39
140
1.0
102
RTVSPost2010PropOp39
 70
     1
102
RTVSPost2010Prop40
 90
        0
102
RTVSPost2010PropOp40
 70
     1
102
RTVSPost2010Prop41ColorIndex
 90
       18
102
RTVSPost2010Prop41ColorRGB
 90
        0
102
RTVSPost2010PropOp41
 70
     1
102
RTVSPost2010Prop42
 90
       50
102
RTVSPost2010PropOp42
 70
     1
102
RTVSPost2010Prop43
 90
        3
102
RTVSPost2010PropOp43
 70
     1
102
RTVSPost2010Prop44ColorIndex
 90
        5
102
RTVSPost2010Prop44ColorRGB
 90
      255
102
RTVSPost2010PropOp44
 70
     1
102
RTVSPost2010Prop45
280
     0
102
RTVSPost2010PropOp45
 70
     1
102
RTVSPost2010Prop46
 90
       50
102
RTVSPost2010PropOp46
 70
     1
102
RTVSPost2010Prop47
 90
       50
102
RTVSPost2010PropOp47
 70
     1
102
RTVSPost2010Prop48
 90
       50
102
RTVSPost2010PropOp48
 70
     1
102
RTVSPost2010Prop49
280
     0
102
RTVSPost2010PropOp49
 70
     1
102
RTVSPost2010Prop50
 90
       50
102
RTVSPost2010PropOp50
 70
     1
102
RTVSPost2010Prop51ColorIndex
 90
      256
102
RTVSPost2010Prop51ColorRGB
 90
-16777216
102
RTVSPost2010PropOp51
 70
     0
102
RTVSPost2010Prop52
140
1.0
102
RTVSPost2010PropOp52
 70
     0
102
RTVSPost2010Prop53
 90
        2
102
RTVSPost2010PropOp53
 70
     1
102
RTVSPost2010Prop54
  1
strokes_ogs.tif
102
RTVSPost2010PropOp54
 70
     1
102
RTVSPost2010Prop55
280
     0
102
RTVSPost2010PropOp55
 70
     1
102
RTVSPost2010Prop56
140
1.0
102
RTVSPost2010PropOp56
 70
     1
102
RTVSPost2010Prop57
140
1.0
102
RTVSPost2010PropOp57
 70
     1
102
RTVSPropertyOp0
 70
     1
102
RTVSPropertyOp1
 70
     1
102
RTVSPropertyOp2
 70
     1
102
RTVSPropertyOp3
 70
     1
102
RTVSPropertyOp4
 70
     1
102
RTVSPropertyOp5
 70
     1
102
RTVSPropertyOp6
 70
     1
102
RTVSPropertyOp7
 70
     1
102
RTVSPropertyOp8
 70
     1
102
RTVSPropertyOp9
 70
     1
102
RTVSPropertyOp10
 70
     1
102
RTVSPropertyOp11
 70
     1
102
RTVSPropertyOp12
 70
     1
102
RTVSPropertyOp13
 70
     1
102
RTVSPropertyOp14
 70
     1
102
RTVSPropertyOp15
 70
     1
102
RTVSPropertyOp16
 70
     1
102
RTVSPropertyOp17
 70
     1
102
RTVSPropertyOp18
 70
     1
102
RTVSPropertyOp19
 70
     1
102
RTVSPropertyOp20
 70
     1
102
RTVSPropertyOp21
 70
     1
102
RTVSPropertyOp22
 70
     1
102
RTVSPropertyOp23
 70
     1
102
RTVSPropertyOp24
 70
     1
102
RTVSPropertyOp25
 70
     1
102
RTVSPropertyOp26
 70
     1
102
RTVSPropertyOp27
 70
     1
102
RTVSPropertyOp28
 70
     1
102
RTVSPropertyOp29
 70
     1
102
RTVSPropertyOp30
 70
     1
102
RTVSPropertyOp31
 70
     1
102
RTVSPropertyOp32
 70
     1
102
RTVSPropertyOp33
 70
     1
102
RTVSPropertyOp34
 70
     1
102
RTVSPropertyOp35
 70
     1
102
RTVSPropertyOp36
 70
     1
102
RTVSPropertyOp37
 70
     1
102
RTVSPropertyOp38
 70
     1
102
RTVSPropertyOp39
 70
     1
102
RTVSPropertyOp40
 70
     1
102
RTVSPropertyOp41
 70
     1
102
RTVSPropertyOp42
 70
     1
102
RTVSPropertyOp43
 70
     1
102
RTVSPropertyOp44
 70
     1
102
RTVSPropertyOp45
 70
     1
102
RTVSPropertyOp46
 70
     1
102
RTVSPropertyOp47
 70
     1
102
RTVSPropertyOp48
 70
     1
102
RTVSPropertyOp49
 70
     1
102
RTVSPropertyOp50
 70
     1
102
RTVSPropertyOp51
 70
     0
102
RTVSPropertyOp52
 70
     0
102
RTVSPropertyOp53
 70
     1
102
RTVSPropertyOp54
 70
     1
102
RTVSPropertyOp55
 70
     1
102
RTVSPropertyOp56
 70
     1
102
RTVSPropertyOp57
 70
     1
102
RTVSPropertyOp58
 70
     1
102
RTVSPropertyOp59
 70
     1
102
RTVSPropertyOp60
 70
     1
102
RTVSPropertyOp61
 70
     1
102
RTVSPropertyOp62
 70
     1
  0
XRECORD
  5
100CD
102
{ACAD_REACTORS
330
100CC
102
}
330
100CC
100
AcDbXrecord
280
     1
102
RTVSPost2010Prop28
280
     0
102
RTVSPost2010PropOp28
 70
     1
102
RTVSPost2010Prop29
280
     1
102
RTVSPost2010PropOp29
 70
     1
102
RTVSPost2010Prop30
280
     1
102
RTVSPost2010PropOp30
 70
     1
102
RTVSPost2010Prop31
280
     0
102
RTVSPost2010PropOp31
 70
     1
102
RTVSPost2010Prop32
280
     0
102
RTVSPost2010PropOp32
 70
     1
102
RTVSPost2010Prop33
280
     0
102
RTVSPost2010PropOp33
 70
     1
102
RTVSPost2010Prop34
280
     0
102
RTVSPost2010PropOp34
 70
     1
102
RTVSPost2010Prop35
280
     0
102
RTVSPost2010PropOp35
 70
     1
102
RTVSPost2010Prop36
280
     0
102
RTVSPost2010PropOp36
 70
     1
102
RTVSPost2010Prop37
 90
       50
102
RTVSPost2010PropOp37
 70
     1
102
RTVSPost2010Prop38
140
0.0
102
RTVSPost2010PropOp38
 70
     1
102
RTVSPost2010Prop39
140
1.0
102
RTVSPost2010PropOp39
 70
     1
102
RTVSPost2010Prop40
 90
        0
102
RTVSPost2010PropOp40
 70
     1
102
RTVSPost2010Prop41ColorIndex
 90
       18
102
RTVSPost2010Prop41ColorRGB
 90
        0
102
RTVSPost2010PropOp41
 70
     1
102
RTVSPost2010Prop42
 90
       50
102
RTVSPost2010PropOp42
 70
     1
102
RTVSPost2010Prop43
 90
        3
102
RTVSPost2010PropOp43
 70
     1
102
RTVSPost2010Prop44ColorIndex
 90
        5
102
RTVSPost2010Prop44ColorRGB
 90
      255
102
RTVSPost2010PropOp44
 70
     1
102
RTVSPost2010Prop45
280
     0
102
RTVSPost2010PropOp45
 70
     1
102
RTVSPost2010Prop46
 90
       50
102
RTVSPost2010PropOp46
 70
     1
102
RTVSPost2010Prop47
 90
       50
102
RTVSPost2010PropOp47
 70
     1
102
RTVSPost2010Prop48
 90
       50
102
RTVSPost2010PropOp48
 70
     1
102
RTVSPost2010Prop49
280
     0
102
RTVSPost2010PropOp49
 70
     1
102
RTVSPost2010Prop50
 90
       50
102
RTVSPost2010PropOp50
 70
     1
102
RTVSPost2010Prop51ColorIndex
 90
      256
102
RTVSPost2010Prop51ColorRGB
 90
-16777216
102
RTVSPost2010PropOp51
 70
     0
102
RTVSPost2010Prop52
140
1.0
102
RTVSPost2010PropOp52
 70
     0
102
RTVSPost2010Prop53
 90
        2
102
RTVSPost2010PropOp53
 70
     1
102
RTVSPost2010Prop54
  1
strokes_ogs.tif
102
RTVSPost2010PropOp54
 70
     1
102
RTVSPost2010Prop55
280
     0
102
RTVSPost2010PropOp55
 70
     1
102
RTVSPost2010Prop56
140
1.0
102
RTVSPost2010PropOp56
 70
     1
102
RTVSPost2010Prop57
140
1.0
102
RTVSPost2010PropOp57
 70
     1
102
RTVSPropertyOp0
 70
     1
102
RTVSPropertyOp1
 70
     1
102
RTVSPropertyOp2
 70
     1
102
RTVSPropertyOp3
 70
     1
102
RTVSPropertyOp4
 70
     1
102
RTVSPropertyOp5
 70
     1
102
RTVSPropertyOp6
 70
     1
102
RTVSPropertyOp7
 70
     1
102
RTVSPropertyOp8
 70
     1
102
RTVSPropertyOp9
 70
     1
102
RTVSPropertyOp10
 70
     1
102
RTVSPropertyOp11
 70
     1
102
RTVSPropertyOp12
 70
     1
102
RTVSPropertyOp13
 70
     1
102
RTVSPropertyOp14
 70
     1
102
RTVSPropertyOp15
 70
     1
102
RTVSPropertyOp16
 70
     1
102
RTVSPropertyOp17
 70
     1
102
RTVSPropertyOp18
 70
     1
102
RTVSPropertyOp19
 70
     1
102
RTVSPropertyOp20
 70
     1
102
RTVSPropertyOp21
 70
     1
102
RTVSPropertyOp22
 70
     1
102
RTVSPropertyOp23
 70
     1
102
RTVSPropertyOp24
 70
     1
102
RTVSPropertyOp25
 70
     1
102
RTVSPropertyOp26
 70
     1
102
RTVSPropertyOp27
 70
     1
102
RTVSPropertyOp28
 70
     1
102
RTVSPropertyOp29
 70
     1
102
RTVSPropertyOp30
 70
     1
102
RTVSPropertyOp31
 70
     1
102
RTVSPropertyOp32
 70
     1
102
RTVSPropertyOp33
 70
     1
102
RTVSPropertyOp34
 70
     1
102
RTVSPropertyOp35
 70
     1
102
RTVSPropertyOp36
 70
     1
102
RTVSPropertyOp37
 70
     1
102
RTVSPropertyOp38
 70
     1
102
RTVSPropertyOp39
 70
     1
102
RTVSPropertyOp40
 70
     1
102
RTVSPropertyOp41
 70
     1
102
RTVSPropertyOp42
 70
     1
102
RTVSPropertyOp43
 70
     1
102
RTVSPropertyOp44
 70
     1
102
RTVSPropertyOp45
 70
     1
102
RTVSPropertyOp46
 70
     1
102
RTVSPropertyOp47
 70
     1
102
RTVSPropertyOp48
 70
     1
102
RTVSPropertyOp49
 70
     1
102
RTVSPropertyOp50
 70
     1
102
RTVSPropertyOp51
 70
     0
102
RTVSPropertyOp52
 70
     0
102
RTVSPropertyOp53
 70
     1
102
RTVSPropertyOp54
 70
     1
102
RTVSPropertyOp55
 70
     1
102
RTVSPropertyOp56
 70
     1
102
RTVSPropertyOp57
 70
     1
102
RTVSPropertyOp58
 70
     1
102
RTVSPropertyOp59
 70
     1
102
RTVSPropertyOp60
 70
     1
102
RTVSPropertyOp61
 70
     1
102
RTVSPropertyOp62
 70
     1
  0
XRECORD
  5
100CB
102
{ACAD_REACTORS
330
100CA
102
}
330
100CA
100
AcDbXrecord
280
     1
102
RTVSPost2010Prop28
280
     0
102
RTVSPost2010PropOp28
 70
     1
102
RTVSPost2010Prop29
280
     1
102
RTVSPost2010PropOp29
 70
     1
102
RTVSPost2010Prop30
280
     1
102
RTVSPost2010PropOp30
 70
     1
102
RTVSPost2010Prop31
280
     0
102
RTVSPost2010PropOp31
 70
     1
102
RTVSPost2010Prop32
280
     0
102
RTVSPost2010PropOp32
 70
     1
102
RTVSPost2010Prop33
280
     0
102
RTVSPost2010PropOp33
 70
     1
102
RTVSPost2010Prop34
280
     0
102
RTVSPost2010PropOp34
 70
     1
102
RTVSPost2010Prop35
280
     0
102
RTVSPost2010PropOp35
 70
     1
102
RTVSPost2010Prop36
280
     0
102
RTVSPost2010PropOp36
 70
     1
102
RTVSPost2010Prop37
 90
       50
102
RTVSPost2010PropOp37
 70
     1
102
RTVSPost2010Prop38
140
0.0
102
RTVSPost2010PropOp38
 70
     1
102
RTVSPost2010Prop39
140
1.0
102
RTVSPost2010PropOp39
 70
     1
102
RTVSPost2010Prop40
 90
        0
102
RTVSPost2010PropOp40
 70
     1
102
RTVSPost2010Prop41ColorIndex
 90
       18
102
RTVSPost2010Prop41ColorRGB
 90
        0
102
RTVSPost2010PropOp41
 70
     1
102
RTVSPost2010Prop42
 90
       50
102
RTVSPost2010PropOp42
 70
     1
102
RTVSPost2010Prop43
 90
        3
102
RTVSPost2010PropOp43
 70
     1
102
RTVSPost2010Prop44ColorIndex
 90
        5
102
RTVSPost2010Prop44ColorRGB
 90
      255
102
RTVSPost2010PropOp44
 70
     1
102
RTVSPost2010Prop45
280
     0
102
RTVSPost2010PropOp45
 70
     1
102
RTVSPost2010Prop46
 90
       50
102
RTVSPost2010PropOp46
 70
     1
102
RTVSPost2010Prop47
 90
       50
102
RTVSPost2010PropOp47
 70
     1
102
RTVSPost2010Prop48
 90
       50
102
RTVSPost2010PropOp48
 70
     1
102
RTVSPost2010Prop49
280
     0
102
RTVSPost2010PropOp49
 70
     1
102
RTVSPost2010Prop50
 90
       50
102
RTVSPost2010PropOp50
 70
     1
102
RTVSPost2010Prop51ColorIndex
 90
      256
102
RTVSPost2010Prop51ColorRGB
 90
-16777216
102
RTVSPost2010PropOp51
 70
     0
102
RTVSPost2010Prop52
140
1.0
102
RTVSPost2010PropOp52
 70
     0
102
RTVSPost2010Prop53
 90
        2
102
RTVSPost2010PropOp53
 70
     1
102
RTVSPost2010Prop54
  1
strokes_ogs.tif
102
RTVSPost2010PropOp54
 70
     1
102
RTVSPost2010Prop55
280
     0
102
RTVSPost2010PropOp55
 70
     1
102
RTVSPost2010Prop56
140
1.0
102
RTVSPost2010PropOp56
 70
     1
102
RTVSPost2010Prop57
140
1.0
102
RTVSPost2010PropOp57
 70
     1
102
RTVSPropertyOp0
 70
     1
102
RTVSPropertyOp1
 70
     1
102
RTVSPropertyOp2
 70
     1
102
RTVSPropertyOp3
 70
     1
102
RTVSPropertyOp4
 70
     1
102
RTVSPropertyOp5
 70
     1
102
RTVSPropertyOp6
 70
     1
102
RTVSPropertyOp7
 70
     1
102
RTVSPropertyOp8
 70
     1
102
RTVSPropertyOp9
 70
     1
102
RTVSPropertyOp10
 70
     1
102
RTVSPropertyOp11
 70
     1
102
RTVSPropertyOp12
 70
     1
102
RTVSPropertyOp13
 70
     1
102
RTVSPropertyOp14
 70
     1
102
RTVSPropertyOp15
 70
     1
102
RTVSPropertyOp16
 70
     1
102
RTVSPropertyOp17
 70
     1
102
RTVSPropertyOp18
 70
     1
102
RTVSPropertyOp19
 70
     1
102
RTVSPropertyOp20
 70
     1
102
RTVSPropertyOp21
 70
     1
102
RTVSPropertyOp22
 70
     1
102
RTVSPropertyOp23
 70
     1
102
RTVSPropertyOp24
 70
     1
102
RTVSPropertyOp25
 70
     1
102
RTVSPropertyOp26
 70
     1
102
RTVSPropertyOp27
 70
     1
102
RTVSPropertyOp28
 70
     1
102
RTVSPropertyOp29
 70
     1
102
RTVSPropertyOp30
 70
     1
102
RTVSPropertyOp31
 70
     1
102
RTVSPropertyOp32
 70
     1
102
RTVSPropertyOp33
 70
     1
102
RTVSPropertyOp34
 70
     1
102
RTVSPropertyOp35
 70
     1
102
RTVSPropertyOp36
 70
     1
102
RTVSPropertyOp37
 70
     1
102
RTVSPropertyOp38
 70
     1
102
RTVSPropertyOp39
 70
     1
102
RTVSPropertyOp40
 70
     1
102
RTVSPropertyOp41
 70
     1
102
RTVSPropertyOp42
 70
     1
102
RTVSPropertyOp43
 70
     1
102
RTVSPropertyOp44
 70
     1
102
RTVSPropertyOp45
 70
     1
102
RTVSPropertyOp46
 70
     1
102
RTVSPropertyOp47
 70
     1
102
RTVSPropertyOp48
 70
     1
102
RTVSPropertyOp49
 70
     1
102
RTVSPropertyOp50
 70
     1
102
RTVSPropertyOp51
 70
     0
102
RTVSPropertyOp52
 70
     0
102
RTVSPropertyOp53
 70
     1
102
RTVSPropertyOp54
 70
     1
102
RTVSPropertyOp55
 70
     1
102
RTVSPropertyOp56
 70
     1
102
RTVSPropertyOp57
 70
     1
102
RTVSPropertyOp58
 70
     1
102
RTVSPropertyOp59
 70
     1
102
RTVSPropertyOp60
 70
     1
102
RTVSPropertyOp61
 70
     1
102
RTVSPropertyOp62
 70
     1
  0
XRECORD
  5
100C5
102
{ACAD_REACTORS
330
100C4
102
}
330
100C4
100
AcDbXrecord
280
     1
102
RTVSPost2010Prop28
280
     0
102
RTVSPost2010PropOp28
 70
     1
102
RTVSPost2010Prop29
280
     1
102
RTVSPost2010PropOp29
 70
     1
102
RTVSPost2010Prop30
280
     1
102
RTVSPost2010PropOp30
 70
     1
102
RTVSPost2010Prop31
280
     0
102
RTVSPost2010PropOp31
 70
     1
102
RTVSPost2010Prop32
280
     0
102
RTVSPost2010PropOp32
 70
     1
102
RTVSPost2010Prop33
280
     0
102
RTVSPost2010PropOp33
 70
     1
102
RTVSPost2010Prop34
280
     0
102
RTVSPost2010PropOp34
 70
     1
102
RTVSPost2010Prop35
280
     0
102
RTVSPost2010PropOp35
 70
     1
102
RTVSPost2010Prop36
280
     0
102
RTVSPost2010PropOp36
 70
     1
102
RTVSPost2010Prop37
 90
       50
102
RTVSPost2010PropOp37
 70
     1
102
RTVSPost2010Prop38
140
0.0
102
RTVSPost2010PropOp38
 70
     1
102
RTVSPost2010Prop39
140
1.0
102
RTVSPost2010PropOp39
 70
     1
102
RTVSPost2010Prop40
 90
        0
102
RTVSPost2010PropOp40
 70
     1
102
RTVSPost2010Prop41ColorIndex
 90
       18
102
RTVSPost2010Prop41ColorRGB
 90
        0
102
RTVSPost2010PropOp41
 70
     1
102
RTVSPost2010Prop42
 90
       50
102
RTVSPost2010PropOp42
 70
     1
102
RTVSPost2010Prop43
 90
        3
102
RTVSPost2010PropOp43
 70
     1
102
RTVSPost2010Prop44ColorIndex
 90
        5
102
RTVSPost2010Prop44ColorRGB
 90
      255
102
RTVSPost2010PropOp44
 70
     1
102
RTVSPost2010Prop45
280
     0
102
RTVSPost2010PropOp45
 70
     1
102
RTVSPost2010Prop46
 90
       50
102
RTVSPost2010PropOp46
 70
     1
102
RTVSPost2010Prop47
 90
       50
102
RTVSPost2010PropOp47
 70
     1
102
RTVSPost2010Prop48
 90
       50
102
RTVSPost2010PropOp48
 70
     1
102
RTVSPost2010Prop49
280
     0
102
RTVSPost2010PropOp49
 70
     1
102
RTVSPost2010Prop50
 90
       50
102
RTVSPost2010PropOp50
 70
     1
102
RTVSPost2010Prop51ColorIndex
 90
      256
102
RTVSPost2010Prop51ColorRGB
 90
-16777216
102
RTVSPost2010PropOp51
 70
     0
102
RTVSPost2010Prop52
140
1.0
102
RTVSPost2010PropOp52
 70
     0
102
RTVSPost2010Prop53
 90
        2
102
RTVSPost2010PropOp53
 70
     1
102
RTVSPost2010Prop54
  1
strokes_ogs.tif
102
RTVSPost2010PropOp54
 70
     1
102
RTVSPost2010Prop55
280
     0
102
RTVSPost2010PropOp55
 70
     1
102
RTVSPost2010Prop56
140
1.0
102
RTVSPost2010PropOp56
 70
     1
102
RTVSPost2010Prop57
140
1.0
102
RTVSPost2010PropOp57
 70
     1
102
RTVSPropertyOp0
 70
     1
102
RTVSPropertyOp1
 70
     1
102
RTVSPropertyOp2
 70
     1
102
RTVSPropertyOp3
 70
     1
102
RTVSPropertyOp4
 70
     1
102
RTVSPropertyOp5
 70
     1
102
RTVSPropertyOp6
 70
     1
102
RTVSPropertyOp7
 70
     1
102
RTVSPropertyOp8
 70
     1
102
RTVSPropertyOp9
 70
     1
102
RTVSPropertyOp10
 70
     1
102
RTVSPropertyOp11
 70
     1
102
RTVSPropertyOp12
 70
     1
102
RTVSPropertyOp13
 70
     1
102
RTVSPropertyOp14
 70
     1
102
RTVSPropertyOp15
 70
     1
102
RTVSPropertyOp16
 70
     1
102
RTVSPropertyOp17
 70
     1
102
RTVSPropertyOp18
 70
     1
102
RTVSPropertyOp19
 70
     1
102
RTVSPropertyOp20
 70
     1
102
RTVSPropertyOp21
 70
     1
102
RTVSPropertyOp22
 70
     1
102
RTVSPropertyOp23
 70
     1
102
RTVSPropertyOp24
 70
     1
102
RTVSPropertyOp25
 70
     1
102
RTVSPropertyOp26
 70
     1
102
RTVSPropertyOp27
 70
     1
102
RTVSPropertyOp28
 70
     1
102
RTVSPropertyOp29
 70
     1
102
RTVSPropertyOp30
 70
     1
102
RTVSPropertyOp31
 70
     1
102
RTVSPropertyOp32
 70
     1
102
RTVSPropertyOp33
 70
     1
102
RTVSPropertyOp34
 70
     1
102
RTVSPropertyOp35
 70
     1
102
RTVSPropertyOp36
 70
     1
102
RTVSPropertyOp37
 70
     1
102
RTVSPropertyOp38
 70
     1
102
RTVSPropertyOp39
 70
     1
102
RTVSPropertyOp40
 70
     1
102
RTVSPropertyOp41
 70
     1
102
RTVSPropertyOp42
 70
     1
102
RTVSPropertyOp43
 70
     1
102
RTVSPropertyOp44
 70
     1
102
RTVSPropertyOp45
 70
     1
102
RTVSPropertyOp46
 70
     1
102
RTVSPropertyOp47
 70
     1
102
RTVSPropertyOp48
 70
     1
102
RTVSPropertyOp49
 70
     1
102
RTVSPropertyOp50
 70
     1
102
RTVSPropertyOp51
 70
     0
102
RTVSPropertyOp52
 70
     0
102
RTVSPropertyOp53
 70
     1
102
RTVSPropertyOp54
 70
     1
102
RTVSPropertyOp55
 70
     1
102
RTVSPropertyOp56
 70
     1
102
RTVSPropertyOp57
 70
     1
102
RTVSPropertyOp58
 70
     1
102
RTVSPropertyOp59
 70
     1
102
RTVSPropertyOp60
 70
     1
102
RTVSPropertyOp61
 70
     1
102
RTVSPropertyOp62
 70
     1
  0
XRECORD
  5
100C7
102
{ACAD_REACTORS
330
100C6
102
}
330
100C6
100
AcDbXrecord
280
     1
102
RTVSPost2010Prop28
280
     0
102
RTVSPost2010PropOp28
 70
     1
102
RTVSPost2010Prop29
280
     1
102
RTVSPost2010PropOp29
 70
     1
102
RTVSPost2010Prop30
280
     1
102
RTVSPost2010PropOp30
 70
     1
102
RTVSPost2010Prop31
280
     0
102
RTVSPost2010PropOp31
 70
     1
102
RTVSPost2010Prop32
280
     0
102
RTVSPost2010PropOp32
 70
     1
102
RTVSPost2010Prop33
280
     0
102
RTVSPost2010PropOp33
 70
     1
102
RTVSPost2010Prop34
280
     0
102
RTVSPost2010PropOp34
 70
     1
102
RTVSPost2010Prop35
280
     0
102
RTVSPost2010PropOp35
 70
     1
102
RTVSPost2010Prop36
280
     0
102
RTVSPost2010PropOp36
 70
     1
102
RTVSPost2010Prop37
 90
       50
102
RTVSPost2010PropOp37
 70
     1
102
RTVSPost2010Prop38
140
0.0
102
RTVSPost2010PropOp38
 70
     1
102
RTVSPost2010Prop39
140
1.0
102
RTVSPost2010PropOp39
 70
     1
102
RTVSPost2010Prop40
 90
        0
102
RTVSPost2010PropOp40
 70
     1
102
RTVSPost2010Prop41ColorIndex
 90
       18
102
RTVSPost2010Prop41ColorRGB
 90
        0
102
RTVSPost2010PropOp41
 70
     1
102
RTVSPost2010Prop42
 90
       50
102
RTVSPost2010PropOp42
 70
     1
102
RTVSPost2010Prop43
 90
        3
102
RTVSPost2010PropOp43
 70
     1
102
RTVSPost2010Prop44ColorIndex
 90
        5
102
RTVSPost2010Prop44ColorRGB
 90
      255
102
RTVSPost2010PropOp44
 70
     1
102
RTVSPost2010Prop45
280
     0
102
RTVSPost2010PropOp45
 70
     1
102
RTVSPost2010Prop46
 90
       50
102
RTVSPost2010PropOp46
 70
     1
102
RTVSPost2010Prop47
 90
       50
102
RTVSPost2010PropOp47
 70
     1
102
RTVSPost2010Prop48
 90
       50
102
RTVSPost2010PropOp48
 70
     1
102
RTVSPost2010Prop49
280
     0
102
RTVSPost2010PropOp49
 70
     1
102
RTVSPost2010Prop50
 90
       50
102
RTVSPost2010PropOp50
 70
     1
102
RTVSPost2010Prop51ColorIndex
 90
      256
102
RTVSPost2010Prop51ColorRGB
 90
-16777216
102
RTVSPost2010PropOp51
 70
     0
102
RTVSPost2010Prop52
140
1.0
102
RTVSPost2010PropOp52
 70
     0
102
RTVSPost2010Prop53
 90
        2
102
RTVSPost2010PropOp53
 70
     1
102
RTVSPost2010Prop54
  1
strokes_ogs.tif
102
RTVSPost2010PropOp54
 70
     1
102
RTVSPost2010Prop55
280
     0
102
RTVSPost2010PropOp55
 70
     1
102
RTVSPost2010Prop56
140
1.0
102
RTVSPost2010PropOp56
 70
     1
102
RTVSPost2010Prop57
140
1.0
102
RTVSPost2010PropOp57
 70
     1
102
RTVSPropertyOp0
 70
     1
102
RTVSPropertyOp1
 70
     1
102
RTVSPropertyOp2
 70
     1
102
RTVSPropertyOp3
 70
     1
102
RTVSPropertyOp4
 70
     1
102
RTVSPropertyOp5
 70
     1
102
RTVSPropertyOp6
 70
     1
102
RTVSPropertyOp7
 70
     1
102
RTVSPropertyOp8
 70
     1
102
RTVSPropertyOp9
 70
     1
102
RTVSPropertyOp10
 70
     1
102
RTVSPropertyOp11
 70
     1
102
RTVSPropertyOp12
 70
     1
102
RTVSPropertyOp13
 70
     1
102
RTVSPropertyOp14
 70
     1
102
RTVSPropertyOp15
 70
     1
102
RTVSPropertyOp16
 70
     1
102
RTVSPropertyOp17
 70
     1
102
RTVSPropertyOp18
 70
     1
102
RTVSPropertyOp19
 70
     1
102
RTVSPropertyOp20
 70
     1
102
RTVSPropertyOp21
 70
     1
102
RTVSPropertyOp22
 70
     1
102
RTVSPropertyOp23
 70
     1
102
RTVSPropertyOp24
 70
     1
102
RTVSPropertyOp25
 70
     1
102
RTVSPropertyOp26
 70
     1
102
RTVSPropertyOp27
 70
     1
102
RTVSPropertyOp28
 70
     1
102
RTVSPropertyOp29
 70
     1
102
RTVSPropertyOp30
 70
     1
102
RTVSPropertyOp31
 70
     1
102
RTVSPropertyOp32
 70
     1
102
RTVSPropertyOp33
 70
     1
102
RTVSPropertyOp34
 70
     1
102
RTVSPropertyOp35
 70
     1
102
RTVSPropertyOp36
 70
     1
102
RTVSPropertyOp37
 70
     1
102
RTVSPropertyOp38
 70
     1
102
RTVSPropertyOp39
 70
     1
102
RTVSPropertyOp40
 70
     1
102
RTVSPropertyOp41
 70
     1
102
RTVSPropertyOp42
 70
     1
102
RTVSPropertyOp43
 70
     1
102
RTVSPropertyOp44
 70
     1
102
RTVSPropertyOp45
 70
     1
102
RTVSPropertyOp46
 70
     1
102
RTVSPropertyOp47
 70
     1
102
RTVSPropertyOp48
 70
     1
102
RTVSPropertyOp49
 70
     1
102
RTVSPropertyOp50
 70
     1
102
RTVSPropertyOp51
 70
     0
102
RTVSPropertyOp52
 70
     0
102
RTVSPropertyOp53
 70
     1
102
RTVSPropertyOp54
 70
     1
102
RTVSPropertyOp55
 70
     1
102
RTVSPropertyOp56
 70
     1
102
RTVSPropertyOp57
 70
     1
102
RTVSPropertyOp58
 70
     1
102
RTVSPropertyOp59
 70
     1
102
RTVSPropertyOp60
 70
     1
102
RTVSPropertyOp61
 70
     1
102
RTVSPropertyOp62
 70
     1
  0
XRECORD
  5
100BD
102
{ACAD_REACTORS
330
100BC
102
}
330
100BC
100
AcDbXrecord
280
     1
102
RTVSPost2010Prop28
280
     0
102
RTVSPost2010PropOp28
 70
     1
102
RTVSPost2010Prop29
280
     1
102
RTVSPost2010PropOp29
 70
     1
102
RTVSPost2010Prop30
280
     1
102
RTVSPost2010PropOp30
 70
     1
102
RTVSPost2010Prop31
280
     0
102
RTVSPost2010PropOp31
 70
     1
102
RTVSPost2010Prop32
280
     0
102
RTVSPost2010PropOp32
 70
     1
102
RTVSPost2010Prop33
280
     0
102
RTVSPost2010PropOp33
 70
     1
102
RTVSPost2010Prop34
280
     0
102
RTVSPost2010PropOp34
 70
     1
102
RTVSPost2010Prop35
280
     0
102
RTVSPost2010PropOp35
 70
     1
102
RTVSPost2010Prop36
280
     0
102
RTVSPost2010PropOp36
 70
     1
102
RTVSPost2010Prop37
 90
       50
102
RTVSPost2010PropOp37
 70
     1
102
RTVSPost2010Prop38
140
0.0
102
RTVSPost2010PropOp38
 70
     1
102
RTVSPost2010Prop39
140
1.0
102
RTVSPost2010PropOp39
 70
     1
102
RTVSPost2010Prop40
 90
        0
102
RTVSPost2010PropOp40
 70
     1
102
RTVSPost2010Prop41ColorIndex
 90
       18
102
RTVSPost2010Prop41ColorRGB
 90
        0
102
RTVSPost2010PropOp41
 70
     1
102
RTVSPost2010Prop42
 90
       50
102
RTVSPost2010PropOp42
 70
     1
102
RTVSPost2010Prop43
 90
        3
102
RTVSPost2010PropOp43
 70
     1
102
RTVSPost2010Prop44ColorIndex
 90
        5
102
RTVSPost2010Prop44ColorRGB
 90
      255
102
RTVSPost2010PropOp44
 70
     1
102
RTVSPost2010Prop45
280
     0
102
RTVSPost2010PropOp45
 70
     1
102
RTVSPost2010Prop46
 90
       50
102
RTVSPost2010PropOp46
 70
     1
102
RTVSPost2010Prop47
 90
       50
102
RTVSPost2010PropOp47
 70
     1
102
RTVSPost2010Prop48
 90
       50
102
RTVSPost2010PropOp48
 70
     1
102
RTVSPost2010Prop49
280
     0
102
RTVSPost2010PropOp49
 70
     1
102
RTVSPost2010Prop50
 90
       50
102
RTVSPost2010PropOp50
 70
     1
102
RTVSPost2010Prop51ColorIndex
 90
      256
102
RTVSPost2010Prop51ColorRGB
 90
-16777216
102
RTVSPost2010PropOp51
 70
     0
102
RTVSPost2010Prop52
140
1.0
102
RTVSPost2010PropOp52
 70
     0
102
RTVSPost2010Prop53
 90
        2
102
RTVSPost2010PropOp53
 70
     1
102
RTVSPost2010Prop54
  1
strokes_ogs.tif
102
RTVSPost2010PropOp54
 70
     1
102
RTVSPost2010Prop55
280
     0
102
RTVSPost2010PropOp55
 70
     1
102
RTVSPost2010Prop56
140
1.0
102
RTVSPost2010PropOp56
 70
     1
102
RTVSPost2010Prop57
140
1.0
102
RTVSPost2010PropOp57
 70
     1
102
RTVSPropertyOp0
 70
     1
102
RTVSPropertyOp1
 70
     1
102
RTVSPropertyOp2
 70
     1
102
RTVSPropertyOp3
 70
     1
102
RTVSPropertyOp4
 70
     1
102
RTVSPropertyOp5
 70
     1
102
RTVSPropertyOp6
 70
     1
102
RTVSPropertyOp7
 70
     1
102
RTVSPropertyOp8
 70
     1
102
RTVSPropertyOp9
 70
     1
102
RTVSPropertyOp10
 70
     1
102
RTVSPropertyOp11
 70
     1
102
RTVSPropertyOp12
 70
     1
102
RTVSPropertyOp13
 70
     1
102
RTVSPropertyOp14
 70
     1
102
RTVSPropertyOp15
 70
     1
102
RTVSPropertyOp16
 70
     1
102
RTVSPropertyOp17
 70
     1
102
RTVSPropertyOp18
 70
     1
102
RTVSPropertyOp19
 70
     1
102
RTVSPropertyOp20
 70
     1
102
RTVSPropertyOp21
 70
     1
102
RTVSPropertyOp22
 70
     1
102
RTVSPropertyOp23
 70
     1
102
RTVSPropertyOp24
 70
     1
102
RTVSPropertyOp25
 70
     1
102
RTVSPropertyOp26
 70
     1
102
RTVSPropertyOp27
 70
     1
102
RTVSPropertyOp28
 70
     1
102
RTVSPropertyOp29
 70
     1
102
RTVSPropertyOp30
 70
     1
102
RTVSPropertyOp31
 70
     1
102
RTVSPropertyOp32
 70
     1
102
RTVSPropertyOp33
 70
     1
102
RTVSPropertyOp34
 70
     1
102
RTVSPropertyOp35
 70
     1
102
RTVSPropertyOp36
 70
     1
102
RTVSPropertyOp37
 70
     1
102
RTVSPropertyOp38
 70
     1
102
RTVSPropertyOp39
 70
     1
102
RTVSPropertyOp40
 70
     1
102
RTVSPropertyOp41
 70
     1
102
RTVSPropertyOp42
 70
     1
102
RTVSPropertyOp43
 70
     1
102
RTVSPropertyOp44
 70
     1
102
RTVSPropertyOp45
 70
     1
102
RTVSPropertyOp46
 70
     1
102
RTVSPropertyOp47
 70
     1
102
RTVSPropertyOp48
 70
     1
102
RTVSPropertyOp49
 70
     1
102
RTVSPropertyOp50
 70
     1
102
RTVSPropertyOp51
 70
     0
102
RTVSPropertyOp52
 70
     0
102
RTVSPropertyOp53
 70
     1
102
RTVSPropertyOp54
 70
     1
102
RTVSPropertyOp55
 70
     1
102
RTVSPropertyOp56
 70
     1
102
RTVSPropertyOp57
 70
     1
102
RTVSPropertyOp58
 70
     1
102
RTVSPropertyOp59
 70
     1
102
RTVSPropertyOp60
 70
     1
102
RTVSPropertyOp61
 70
     1
102
RTVSPropertyOp62
 70
     1
  0
XRECORD
  5
100B1
102
{ACAD_REACTORS
330
100B0
102
}
330
100B0
100
AcDbXrecord
280
     1
102
RTVSPost2010Prop28
280
     0
102
RTVSPost2010PropOp28
 70
     1
102
RTVSPost2010Prop29
280
     1
102
RTVSPost2010PropOp29
 70
     1
102
RTVSPost2010Prop30
280
     1
102
RTVSPost2010PropOp30
 70
     1
102
RTVSPost2010Prop31
280
     0
102
RTVSPost2010PropOp31
 70
     1
102
RTVSPost2010Prop32
280
     0
102
RTVSPost2010PropOp32
 70
     1
102
RTVSPost2010Prop33
280
     0
102
RTVSPost2010PropOp33
 70
     1
102
RTVSPost2010Prop34
280
     0
102
RTVSPost2010PropOp34
 70
     1
102
RTVSPost2010Prop35
280
     0
102
RTVSPost2010PropOp35
 70
     1
102
RTVSPost2010Prop36
280
     0
102
RTVSPost2010PropOp36
 70
     1
102
RTVSPost2010Prop37
 90
       50
102
RTVSPost2010PropOp37
 70
     1
102
RTVSPost2010Prop38
140
0.0
102
RTVSPost2010PropOp38
 70
     1
102
RTVSPost2010Prop39
140
1.0
102
RTVSPost2010PropOp39
 70
     1
102
RTVSPost2010Prop40
 90
        0
102
RTVSPost2010PropOp40
 70
     1
102
RTVSPost2010Prop41ColorIndex
 90
       18
102
RTVSPost2010Prop41ColorRGB
 90
        0
102
RTVSPost2010PropOp41
 70
     1
102
RTVSPost2010Prop42
 90
       50
102
RTVSPost2010PropOp42
 70
     1
102
RTVSPost2010Prop43
 90
        3
102
RTVSPost2010PropOp43
 70
     1
102
RTVSPost2010Prop44ColorIndex
 90
        5
102
RTVSPost2010Prop44ColorRGB
 90
      255
102
RTVSPost2010PropOp44
 70
     1
102
RTVSPost2010Prop45
280
     0
102
RTVSPost2010PropOp45
 70
     1
102
RTVSPost2010Prop46
 90
       50
102
RTVSPost2010PropOp46
 70
     1
102
RTVSPost2010Prop47
 90
       50
102
RTVSPost2010PropOp47
 70
     1
102
RTVSPost2010Prop48
 90
       50
102
RTVSPost2010PropOp48
 70
     1
102
RTVSPost2010Prop49
280
     0
102
RTVSPost2010PropOp49
 70
     1
102
RTVSPost2010Prop50
 90
       50
102
RTVSPost2010PropOp50
 70
     1
102
RTVSPost2010Prop51ColorIndex
 90
      256
102
RTVSPost2010Prop51ColorRGB
 90
-16777216
102
RTVSPost2010PropOp51
 70
     0
102
RTVSPost2010Prop52
140
1.0
102
RTVSPost2010PropOp52
 70
     0
102
RTVSPost2010Prop53
 90
        2
102
RTVSPost2010PropOp53
 70
     1
102
RTVSPost2010Prop54
  1
strokes_ogs.tif
102
RTVSPost2010PropOp54
 70
     1
102
RTVSPost2010Prop55
280
     0
102
RTVSPost2010PropOp55
 70
     1
102
RTVSPost2010Prop56
140
1.0
102
RTVSPost2010PropOp56
 70
     1
102
RTVSPost2010Prop57
140
1.0
102
RTVSPost2010PropOp57
 70
     1
102
RTVSPropertyOp0
 70
     1
102
RTVSPropertyOp1
 70
     1
102
RTVSPropertyOp2
 70
     1
102
RTVSPropertyOp3
 70
     1
102
RTVSPropertyOp4
 70
     1
102
RTVSPropertyOp5
 70
     1
102
RTVSPropertyOp6
 70
     1
102
RTVSPropertyOp7
 70
     1
102
RTVSPropertyOp8
 70
     1
102
RTVSPropertyOp9
 70
     1
102
RTVSPropertyOp10
 70
     1
102
RTVSPropertyOp11
 70
     1
102
RTVSPropertyOp12
 70
     1
102
RTVSPropertyOp13
 70
     1
102
RTVSPropertyOp14
 70
     1
102
RTVSPropertyOp15
 70
     1
102
RTVSPropertyOp16
 70
     1
102
RTVSPropertyOp17
 70
     1
102
RTVSPropertyOp18
 70
     1
102
RTVSPropertyOp19
 70
     1
102
RTVSPropertyOp20
 70
     1
102
RTVSPropertyOp21
 70
     1
102
RTVSPropertyOp22
 70
     1
102
RTVSPropertyOp23
 70
     1
102
RTVSPropertyOp24
 70
     1
102
RTVSPropertyOp25
 70
     1
102
RTVSPropertyOp26
 70
     1
102
RTVSPropertyOp27
 70
     1
102
RTVSPropertyOp28
 70
     1
102
RTVSPropertyOp29
 70
     1
102
RTVSPropertyOp30
 70
     1
102
RTVSPropertyOp31
 70
     1
102
RTVSPropertyOp32
 70
     1
102
RTVSPropertyOp33
 70
     1
102
RTVSPropertyOp34
 70
     1
102
RTVSPropertyOp35
 70
     1
102
RTVSPropertyOp36
 70
     1
102
RTVSPropertyOp37
 70
     1
102
RTVSPropertyOp38
 70
     1
102
RTVSPropertyOp39
 70
     1
102
RTVSPropertyOp40
 70
     1
102
RTVSPropertyOp41
 70
     1
102
RTVSPropertyOp42
 70
     1
102
RTVSPropertyOp43
 70
     1
102
RTVSPropertyOp44
 70
     1
102
RTVSPropertyOp45
 70
     1
102
RTVSPropertyOp46
 70
     1
102
RTVSPropertyOp47
 70
     1
102
RTVSPropertyOp48
 70
     1
102
RTVSPropertyOp49
 70
     1
102
RTVSPropertyOp50
 70
     1
102
RTVSPropertyOp51
 70
     0
102
RTVSPropertyOp52
 70
     0
102
RTVSPropertyOp53
 70
     1
102
RTVSPropertyOp54
 70
     1
102
RTVSPropertyOp55
 70
     1
102
RTVSPropertyOp56
 70
     1
102
RTVSPropertyOp57
 70
     1
102
RTVSPropertyOp58
 70
     1
102
RTVSPropertyOp59
 70
     1
102
RTVSPropertyOp60
 70
     1
102
RTVSPropertyOp61
 70
     1
102
RTVSPropertyOp62
 70
     1
  0
XRECORD
  5
100C9
102
{ACAD_REACTORS
330
100C8
102
}
330
100C8
100
AcDbXrecord
280
     1
102
RTVSPost2010Prop28
280
     0
102
RTVSPost2010PropOp28
 70
     1
102
RTVSPost2010Prop29
280
     1
102
RTVSPost2010PropOp29
 70
     1
102
RTVSPost2010Prop30
280
     1
102
RTVSPost2010PropOp30
 70
     1
102
RTVSPost2010Prop31
280
     0
102
RTVSPost2010PropOp31
 70
     1
102
RTVSPost2010Prop32
280
     0
102
RTVSPost2010PropOp32
 70
     1
102
RTVSPost2010Prop33
280
     0
102
RTVSPost2010PropOp33
 70
     1
102
RTVSPost2010Prop34
280
     0
102
RTVSPost2010PropOp34
 70
     1
102
RTVSPost2010Prop35
280
     0
102
RTVSPost2010PropOp35
 70
     1
102
RTVSPost2010Prop36
280
     0
102
RTVSPost2010PropOp36
 70
     1
102
RTVSPost2010Prop37
 90
       50
102
RTVSPost2010PropOp37
 70
     1
102
RTVSPost2010Prop38
140
0.0
102
RTVSPost2010PropOp38
 70
     1
102
RTVSPost2010Prop39
140
1.0
102
RTVSPost2010PropOp39
 70
     1
102
RTVSPost2010Prop40
 90
        0
102
RTVSPost2010PropOp40
 70
     1
102
RTVSPost2010Prop41ColorIndex
 90
       18
102
RTVSPost2010Prop41ColorRGB
 90
        0
102
RTVSPost2010PropOp41
 70
     1
102
RTVSPost2010Prop42
 90
       50
102
RTVSPost2010PropOp42
 70
     1
102
RTVSPost2010Prop43
 90
        3
102
RTVSPost2010PropOp43
 70
     1
102
RTVSPost2010Prop44ColorIndex
 90
        5
102
RTVSPost2010Prop44ColorRGB
 90
      255
102
RTVSPost2010PropOp44
 70
     1
102
RTVSPost2010Prop45
280
     0
102
RTVSPost2010PropOp45
 70
     1
102
RTVSPost2010Prop46
 90
       50
102
RTVSPost2010PropOp46
 70
     1
102
RTVSPost2010Prop47
 90
       50
102
RTVSPost2010PropOp47
 70
     1
102
RTVSPost2010Prop48
 90
       50
102
RTVSPost2010PropOp48
 70
     1
102
RTVSPost2010Prop49
280
     0
102
RTVSPost2010PropOp49
 70
     1
102
RTVSPost2010Prop50
 90
       50
102
RTVSPost2010PropOp50
 70
     1
102
RTVSPost2010Prop51ColorIndex
 90
      256
102
RTVSPost2010Prop51ColorRGB
 90
-16777216
102
RTVSPost2010PropOp51
 70
     0
102
RTVSPost2010Prop52
140
1.0
102
RTVSPost2010PropOp52
 70
     0
102
RTVSPost2010Prop53
 90
        2
102
RTVSPost2010PropOp53
 70
     1
102
RTVSPost2010Prop54
  1
strokes_ogs.tif
102
RTVSPost2010PropOp54
 70
     1
102
RTVSPost2010Prop55
280
     0
102
RTVSPost2010PropOp55
 70
     1
102
RTVSPost2010Prop56
140
1.0
102
RTVSPost2010PropOp56
 70
     1
102
RTVSPost2010Prop57
140
1.0
102
RTVSPost2010PropOp57
 70
     1
102
RTVSPropertyOp0
 70
     1
102
RTVSPropertyOp1
 70
     1
102
RTVSPropertyOp2
 70
     1
102
RTVSPropertyOp3
 70
     1
102
RTVSPropertyOp4
 70
     1
102
RTVSPropertyOp5
 70
     1
102
RTVSPropertyOp6
 70
     1
102
RTVSPropertyOp7
 70
     1
102
RTVSPropertyOp8
 70
     1
102
RTVSPropertyOp9
 70
     1
102
RTVSPropertyOp10
 70
     1
102
RTVSPropertyOp11
 70
     1
102
RTVSPropertyOp12
 70
     1
102
RTVSPropertyOp13
 70
     1
102
RTVSPropertyOp14
 70
     1
102
RTVSPropertyOp15
 70
     1
102
RTVSPropertyOp16
 70
     1
102
RTVSPropertyOp17
 70
     1
102
RTVSPropertyOp18
 70
     1
102
RTVSPropertyOp19
 70
     1
102
RTVSPropertyOp20
 70
     1
102
RTVSPropertyOp21
 70
     1
102
RTVSPropertyOp22
 70
     1
102
RTVSPropertyOp23
 70
     1
102
RTVSPropertyOp24
 70
     1
102
RTVSPropertyOp25
 70
     1
102
RTVSPropertyOp26
 70
     1
102
RTVSPropertyOp27
 70
     1
102
RTVSPropertyOp28
 70
     1
102
RTVSPropertyOp29
 70
     1
102
RTVSPropertyOp30
 70
     1
102
RTVSPropertyOp31
 70
     1
102
RTVSPropertyOp32
 70
     1
102
RTVSPropertyOp33
 70
     1
102
RTVSPropertyOp34
 70
     1
102
RTVSPropertyOp35
 70
     1
102
RTVSPropertyOp36
 70
     1
102
RTVSPropertyOp37
 70
     1
102
RTVSPropertyOp38
 70
     1
102
RTVSPropertyOp39
 70
     1
102
RTVSPropertyOp40
 70
     1
102
RTVSPropertyOp41
 70
     1
102
RTVSPropertyOp42
 70
     1
102
RTVSPropertyOp43
 70
     1
102
RTVSPropertyOp44
 70
     1
102
RTVSPropertyOp45
 70
     1
102
RTVSPropertyOp46
 70
     1
102
RTVSPropertyOp47
 70
     1
102
RTVSPropertyOp48
 70
     1
102
RTVSPropertyOp49
 70
     1
102
RTVSPropertyOp50
 70
     1
102
RTVSPropertyOp51
 70
     0
102
RTVSPropertyOp52
 70
     0
102
RTVSPropertyOp53
 70
     1
102
RTVSPropertyOp54
 70
     1
102
RTVSPropertyOp55
 70
     1
102
RTVSPropertyOp56
 70
     1
102
RTVSPropertyOp57
 70
     1
102
RTVSPropertyOp58
 70
     1
102
RTVSPropertyOp59
 70
     1
102
RTVSPropertyOp60
 70
     1
102
RTVSPropertyOp61
 70
     1
102
RTVSPropertyOp62
 70
     1
  0
ENDSEC
  0
EOF
